ISO-10303-21;
HEADER;
FILE_DESCRIPTION (( 'STEP AP214' ),
    '1' );
FILE_NAME ('BI 100.STEP',
    '2009-07-15T21:28:24',
    ( 'Wolfgang Schmidt' ),
    ( 'WS-KO' ),
    'SwSTEP 2.0',
    'SolidWorks 2008',
    '' );
FILE_SCHEMA (( 'AUTOMOTIVE_DESIGN' ));
ENDSEC;

DATA;
#1 = CIRCLE ( 'NONE', #48, 50.00000000000000000 ) ;
#2 = DIRECTION ( 'NONE',  ( 0.0000000000000000000, -0.0000000000000000000, 1.000000000000000000 ) ) ;
#3 = DIRECTION ( 'NONE',  ( 0.0000000000000000000, 1.000000000000000000, 0.0000000000000000000 ) ) ;
#4 = AXIS2_PLACEMENT_3D ( 'NONE', #6, #3, #2 ) ;
#5 = CARTESIAN_POINT ( 'NONE',  ( 0.0000000000000000000, 1000.000000000000000, 0.0000000000000000000 ) ) ;
#6 = CARTESIAN_POINT ( 'NONE',  ( 0.0000000000000000000, 1000.000000000000000, 0.0000000000000000000 ) ) ;
#7 = PLANE ( 'NONE',  #4 ) ;
#8 = FACE_BOUND ( 'NONE', #199, .T. ) ;
#9 = FACE_OUTER_BOUND ( 'NONE', #196, .T. ) ;
#10 = DIRECTION ( 'NONE',  ( -0.0000000000000000000, -1.000000000000000000, -0.0000000000000000000 ) ) ;
#11 = VECTOR ( 'NONE', #10, 1000.000000000000000 ) ;
#12 = CARTESIAN_POINT ( 'NONE',  ( 0.0000000000000000000, 1000.000000000000000, -50.00000000000000000 ) ) ;
#13 = LINE ( 'NONE', #12, #11 ) ;
#14 = DIRECTION ( 'NONE',  ( 0.0000000000000000000, 0.0000000000000000000, 1.000000000000000000 ) ) ;
#15 = DIRECTION ( 'NONE',  ( 0.0000000000000000000, 1.000000000000000000, 0.0000000000000000000 ) ) ;
#16 = CARTESIAN_POINT ( 'NONE',  ( 0.0000000000000000000, 1000.000000000000000, 0.0000000000000000000 ) ) ;
#17 = AXIS2_PLACEMENT_3D ( 'NONE', #16, #15, #14 ) ;
#18 = CIRCLE ( 'NONE', #17, 20.00000000000000000 ) ;
#19 = DIRECTION ( 'NONE',  ( 0.0000000000000000000, 0.0000000000000000000, -1.000000000000000000 ) ) ;
#20 = DIRECTION ( 'NONE',  ( -0.0000000000000000000, -1.000000000000000000, -0.0000000000000000000 ) ) ;
#21 = CARTESIAN_POINT ( 'NONE',  ( 0.0000000000000000000, 1000.000000000000000, 0.0000000000000000000 ) ) ;
#22 = AXIS2_PLACEMENT_3D ( 'NONE', #21, #20, #19 ) ;
#23 = CYLINDRICAL_SURFACE ( 'NONE', #22, 50.00000000000000000 ) ;
#24 = FACE_OUTER_BOUND ( 'NONE', #158, .T. ) ;
#25 = DIRECTION ( 'NONE',  ( 0.0000000000000000000, 0.0000000000000000000, 1.000000000000000000 ) ) ;
#26 = DIRECTION ( 'NONE',  ( 0.0000000000000000000, 1.000000000000000000, 0.0000000000000000000 ) ) ;
#27 = CARTESIAN_POINT ( 'NONE',  ( 0.0000000000000000000, 0.0000000000000000000, 0.0000000000000000000 ) ) ;
#28 = AXIS2_PLACEMENT_3D ( 'NONE', #27, #26, #25 ) ;
#29 = CIRCLE ( 'NONE', #28, 20.00000000000000000 ) ;
#30 = DIRECTION ( 'NONE',  ( 0.0000000000000000000, 0.0000000000000000000, 1.000000000000000000 ) ) ;
#31 = DIRECTION ( 'NONE',  ( 0.0000000000000000000, 1.000000000000000000, 0.0000000000000000000 ) ) ;
#32 = CARTESIAN_POINT ( 'NONE',  ( 0.0000000000000000000, 0.0000000000000000000, 0.0000000000000000000 ) ) ;
#33 = AXIS2_PLACEMENT_3D ( 'NONE', #32, #31, #30 ) ;
#34 = CIRCLE ( 'NONE', #33, 50.00000000000000000 ) ;
#35 = DIRECTION ( 'NONE',  ( 1.000000000000000000, 0.0000000000000000000, 0.0000000000000000000 ) ) ;
#36 = DIRECTION ( 'NONE',  ( 0.0000000000000000000, 0.0000000000000000000, 1.000000000000000000 ) ) ;
#37 = AXIS2_PLACEMENT_3D ( 'NONE', #121, #36, #35 ) ;
#38 = APPLICATION_CONTEXT ( 'automotive_design' ) ;
#39 = SHAPE_DEFINITION_REPRESENTATION ( #93, #40 ) ;
#40 = ADVANCED_BREP_SHAPE_REPRESENTATION ( 'BI 100', ( #139, #37 ), #41 ) ;
#41 =( GEOMETRIC_REPRESENTATION_CONTEXT ( 3 ) GLOBAL_UNCERTAINTY_ASSIGNED_CONTEXT ( ( #42 ) ) GLOBAL_UNIT_ASSIGNED_CONTEXT ( ( #45, #44, #43 ) ) REPRESENTATION_CONTEXT ( 'NONE', 'WORKASPACE' ) );
#42 = UNCERTAINTY_MEASURE_WITH_UNIT (LENGTH_MEASURE( 1.000000000000000100E-005 ), #45, 'distance_accuracy_value', 'NONE');
#43 =( NAMED_UNIT ( * ) SI_UNIT ( $, .STERADIAN. ) SOLID_ANGLE_UNIT ( ) );
#44 =( NAMED_UNIT ( * ) PLANE_ANGLE_UNIT ( ) SI_UNIT ( $, .RADIAN. ) );
#45 =( LENGTH_UNIT ( ) NAMED_UNIT ( * ) SI_UNIT ( .MILLI., .METRE. ) );
#46 = DIRECTION ( 'NONE',  ( 0.0000000000000000000, 0.0000000000000000000, 1.000000000000000000 ) ) ;
#47 = DIRECTION ( 'NONE',  ( 0.0000000000000000000, 1.000000000000000000, 0.0000000000000000000 ) ) ;
#48 = AXIS2_PLACEMENT_3D ( 'NONE', #5, #47, #46 ) ;
#49 = UNCERTAINTY_MEASURE_WITH_UNIT (LENGTH_MEASURE( 1.000000000000000100E-005 ), #52, 'distance_accuracy_value', 'NONE');
#50 =( NAMED_UNIT ( * ) SI_UNIT ( $, .STERADIAN. ) SOLID_ANGLE_UNIT ( ) );
#51 =( NAMED_UNIT ( * ) PLANE_ANGLE_UNIT ( ) SI_UNIT ( $, .RADIAN. ) );
#52 =( LENGTH_UNIT ( ) NAMED_UNIT ( * ) SI_UNIT ( .MILLI., .METRE. ) );
#53 = MECHANICAL_DESIGN_GEOMETRIC_PRESENTATION_REPRESENTATION (  '', ( #55 ), #189 ) ;
#54 = PRESENTATION_LAYER_ASSIGNMENT (  '', '', ( #55 ) ) ;
#55 = STYLED_ITEM ( 'NONE', ( #56 ), #139 ) ;
#56 = PRESENTATION_STYLE_ASSIGNMENT (( #57 ) ) ;
#57 = SURFACE_STYLE_USAGE ( .BOTH. , #58 ) ;
#58 = SURFACE_SIDE_STYLE ('',( #59 ) ) ;
#59 = SURFACE_STYLE_FILL_AREA ( #60 ) ;
#60 = FILL_AREA_STYLE ('',( #61 ) ) ;
#61 = FILL_AREA_STYLE_COLOUR ( '', #62 ) ;
#62 = COLOUR_RGB ( '',1.000000000000000000, 1.000000000000000000, 1.000000000000000000 ) ;
#63 = CARTESIAN_POINT ( 'NONE',  ( 0.0000000000000000000, 0.0000000000000000000, -50.00000000000000000 ) ) ;
#64 = DIRECTION ( 'NONE',  ( 0.0000000000000000000, 0.0000000000000000000, 1.000000000000000000 ) ) ;
#65 = DIRECTION ( 'NONE',  ( 0.0000000000000000000, 1.000000000000000000, 0.0000000000000000000 ) ) ;
#66 = CARTESIAN_POINT ( 'NONE',  ( 0.0000000000000000000, 0.0000000000000000000, 0.0000000000000000000 ) ) ;
#67 = AXIS2_PLACEMENT_3D ( 'NONE', #66, #65, #64 ) ;
#68 = CIRCLE ( 'NONE', #67, 50.00000000000000000 ) ;
#69 = CARTESIAN_POINT ( 'NONE',  ( 6.123031769111886300E-015, 0.0000000000000000000, 50.00000000000000000 ) ) ;
#70 = DIRECTION ( 'NONE',  ( -0.0000000000000000000, -1.000000000000000000, -0.0000000000000000000 ) ) ;
#71 = VECTOR ( 'NONE', #70, 1000.000000000000000 ) ;
#72 = CARTESIAN_POINT ( 'NONE',  ( 6.123031769111886300E-015, 1000.000000000000000, 50.00000000000000000 ) ) ;
#73 = LINE ( 'NONE', #72, #71 ) ;
#74 = CARTESIAN_POINT ( 'NONE',  ( 0.0000000000000000000, 1000.000000000000000, -50.00000000000000000 ) ) ;
#75 = CARTESIAN_POINT ( 'NONE',  ( 6.123031769111886300E-015, 1000.000000000000000, 50.00000000000000000 ) ) ;
#76 = DIRECTION ( 'NONE',  ( 0.0000000000000000000, 0.0000000000000000000, 1.000000000000000000 ) ) ;
#77 = DIRECTION ( 'NONE',  ( 0.0000000000000000000, 1.000000000000000000, 0.0000000000000000000 ) ) ;
#78 = AXIS2_PLACEMENT_3D ( 'NONE', #98, #77, #76 ) ;
#79 = CIRCLE ( 'NONE', #78, 50.00000000000000000 ) ;
#80 = APPLICATION_PROTOCOL_DEFINITION ( 'draft international standard', 'automotive_design', 1998, #81 ) ;
#81 = APPLICATION_CONTEXT ( 'automotive_design' ) ;
#82 = PRODUCT ( 'BI 100', 'BI 100', '', ( #83 ) ) ;
#83 = PRODUCT_CONTEXT ( 'NONE', #38, 'mechanical' ) ;
#84 = APPLICATION_PROTOCOL_DEFINITION ( 'draft international standard', 'automotive_design', 1998, #38 ) ;
#85 = ADVANCED_FACE ( 'NONE', ( #120 ), #118, .F. ) ;
#86 = EDGE_LOOP ( 'NONE', ( #87, #88, #89, #90 ) ) ;
#87 = ORIENTED_EDGE ( 'NONE', *, *, #147, .F. ) ;
#88 = ORIENTED_EDGE ( 'NONE', *, *, #191, .T. ) ;
#89 = ORIENTED_EDGE ( 'NONE', *, *, #126, .T. ) ;
#90 = ORIENTED_EDGE ( 'NONE', *, *, #156, .F. ) ;
#91 = CLOSED_SHELL ( 'NONE', ( #140, #127, #195, #149, #157, #85 ) ) ;
#92 = ORIENTED_EDGE ( 'NONE', *, *, #130, .T. ) ;
#93 = PRODUCT_DEFINITION_SHAPE ( 'NONE', 'NONE',  #96 ) ;
#94 = PRODUCT_RELATED_PRODUCT_CATEGORY ( 'part', '', ( #82 ) ) ;
#95 = PRODUCT_DEFINITION_FORMATION_WITH_SPECIFIED_SOURCE ( 'ANY', '', #82, .NOT_KNOWN. ) ;
#96 = PRODUCT_DEFINITION ( 'UNKNOWN', '', #95, #97 ) ;
#97 = PRODUCT_DEFINITION_CONTEXT ( 'detailed design', #81, 'design' ) ;
#98 = CARTESIAN_POINT ( 'NONE',  ( 0.0000000000000000000, 1000.000000000000000, 0.0000000000000000000 ) ) ;
#99 = DIRECTION ( 'NONE',  ( 0.0000000000000000000, 0.0000000000000000000, -1.000000000000000000 ) ) ;
#100 = DIRECTION ( 'NONE',  ( -0.0000000000000000000, -1.000000000000000000, -0.0000000000000000000 ) ) ;
#101 = CARTESIAN_POINT ( 'NONE',  ( 0.0000000000000000000, 1000.000000000000000, 0.0000000000000000000 ) ) ;
#102 = AXIS2_PLACEMENT_3D ( 'NONE', #101, #100, #99 ) ;
#103 = CYLINDRICAL_SURFACE ( 'NONE', #102, 50.00000000000000000 ) ;
#104 = FACE_OUTER_BOUND ( 'NONE', #128, .T. ) ;
#105 = DIRECTION ( 'NONE',  ( -0.0000000000000000000, -1.000000000000000000, -0.0000000000000000000 ) ) ;
#106 = VECTOR ( 'NONE', #105, 1000.000000000000000 ) ;
#107 = CARTESIAN_POINT ( 'NONE',  ( 0.0000000000000000000, 1000.000000000000000, -20.00000000000000000 ) ) ;
#108 = LINE ( 'NONE', #107, #106 ) ;
#109 = CARTESIAN_POINT ( 'NONE',  ( 0.0000000000000000000, 0.0000000000000000000, -20.00000000000000000 ) ) ;
#110 = DIRECTION ( 'NONE',  ( 0.0000000000000000000, 0.0000000000000000000, 1.000000000000000000 ) ) ;
#111 = DIRECTION ( 'NONE',  ( 0.0000000000000000000, 1.000000000000000000, 0.0000000000000000000 ) ) ;
#112 = CARTESIAN_POINT ( 'NONE',  ( 0.0000000000000000000, 0.0000000000000000000, 0.0000000000000000000 ) ) ;
#113 = AXIS2_PLACEMENT_3D ( 'NONE', #112, #111, #110 ) ;
#114 = CIRCLE ( 'NONE', #113, 20.00000000000000000 ) ;
#115 = DIRECTION ( 'NONE',  ( 0.0000000000000000000, 0.0000000000000000000, -1.000000000000000000 ) ) ;
#116 = DIRECTION ( 'NONE',  ( -0.0000000000000000000, -1.000000000000000000, -0.0000000000000000000 ) ) ;
#117 = AXIS2_PLACEMENT_3D ( 'NONE', #119, #116, #115 ) ;
#118 = CYLINDRICAL_SURFACE ( 'NONE', #117, 20.00000000000000000 ) ;
#119 = CARTESIAN_POINT ( 'NONE',  ( 0.0000000000000000000, 1000.000000000000000, 0.0000000000000000000 ) ) ;
#120 = FACE_OUTER_BOUND ( 'NONE', #86, .T. ) ;
#121 = CARTESIAN_POINT ( 'NONE',  ( 0.0000000000000000000, 0.0000000000000000000, 0.0000000000000000000 ) ) ;
#122 = ORIENTED_EDGE ( 'NONE', *, *, #123, .F. ) ;
#123 = EDGE_CURVE ( 'NONE', #124, #148, #114, .T. ) ;
#124 = VERTEX_POINT ( 'NONE', #109 ) ;
#125 = ORIENTED_EDGE ( 'NONE', *, *, #126, .F. ) ;
#126 = EDGE_CURVE ( 'NONE', #144, #124, #108, .T. ) ;
#127 = ADVANCED_FACE ( 'NONE', ( #104 ), #103, .T. ) ;
#128 = EDGE_LOOP ( 'NONE', ( #129, #133, #136, #193 ) ) ;
#129 = ORIENTED_EDGE ( 'NONE', *, *, #130, .F. ) ;
#130 = EDGE_CURVE ( 'NONE', #131, #132, #79, .T. ) ;
#131 = VERTEX_POINT ( 'NONE', #75 ) ;
#132 = VERTEX_POINT ( 'NONE', #74 ) ;
#133 = ORIENTED_EDGE ( 'NONE', *, *, #134, .T. ) ;
#134 = EDGE_CURVE ( 'NONE', #131, #135, #73, .T. ) ;
#135 = VERTEX_POINT ( 'NONE', #69 ) ;
#136 = ORIENTED_EDGE ( 'NONE', *, *, #137, .T. ) ;
#137 = EDGE_CURVE ( 'NONE', #135, #138, #68, .T. ) ;
#138 = VERTEX_POINT ( 'NONE', #63 ) ;
#139 = MANIFOLD_SOLID_BREP ( 'NONE', #91 ) ;
#140 = ADVANCED_FACE ( 'NONE', ( #188 ), #185, .F. ) ;
#141 = EDGE_LOOP ( 'NONE', ( #142, #146, #122, #125 ) ) ;
#142 = ORIENTED_EDGE ( 'NONE', *, *, #143, .T. ) ;
#143 = EDGE_CURVE ( 'NONE', #144, #145, #186, .T. ) ;
#144 = VERTEX_POINT ( 'NONE', #177 ) ;
#145 = VERTEX_POINT ( 'NONE', #176 ) ;
#146 = ORIENTED_EDGE ( 'NONE', *, *, #147, .T. ) ;
#147 = EDGE_CURVE ( 'NONE', #145, #148, #175, .T. ) ;
#148 = VERTEX_POINT ( 'NONE', #171 ) ;
#149 = ADVANCED_FACE ( 'NONE', ( #170, #169 ), #168, .F. ) ;
#150 = ORIENTED_EDGE ( 'NONE', *, *, #151, .F. ) ;
#151 = EDGE_CURVE ( 'NONE', #138, #135, #34, .T. ) ;
#152 = ORIENTED_EDGE ( 'NONE', *, *, #137, .F. ) ;
#153 = EDGE_LOOP ( 'NONE', ( #154, #155 ) ) ;
#154 = ORIENTED_EDGE ( 'NONE', *, *, #123, .T. ) ;
#155 = ORIENTED_EDGE ( 'NONE', *, *, #156, .T. ) ;
#156 = EDGE_CURVE ( 'NONE', #148, #124, #29, .T. ) ;
#157 = ADVANCED_FACE ( 'NONE', ( #24 ), #23, .T. ) ;
#158 = EDGE_LOOP ( 'NONE', ( #159, #160, #161, #162 ) ) ;
#159 = ORIENTED_EDGE ( 'NONE', *, *, #134, .F. ) ;
#160 = ORIENTED_EDGE ( 'NONE', *, *, #198, .F. ) ;
#161 = ORIENTED_EDGE ( 'NONE', *, *, #194, .T. ) ;
#162 = ORIENTED_EDGE ( 'NONE', *, *, #151, .T. ) ;
#163 = ORIENTED_EDGE ( 'NONE', *, *, #143, .F. ) ;
#164 = DIRECTION ( 'NONE',  ( 0.0000000000000000000, -0.0000000000000000000, 1.000000000000000000 ) ) ;
#165 = DIRECTION ( 'NONE',  ( 0.0000000000000000000, 1.000000000000000000, 0.0000000000000000000 ) ) ;
#166 = CARTESIAN_POINT ( 'NONE',  ( 0.0000000000000000000, 0.0000000000000000000, 0.0000000000000000000 ) ) ;
#167 = AXIS2_PLACEMENT_3D ( 'NONE', #166, #165, #164 ) ;
#168 = PLANE ( 'NONE',  #167 ) ;
#169 = FACE_BOUND ( 'NONE', #153, .T. ) ;
#170 = FACE_OUTER_BOUND ( 'NONE', #192, .T. ) ;
#171 = CARTESIAN_POINT ( 'NONE',  ( 2.449212707644754500E-015, 0.0000000000000000000, 20.00000000000000000 ) ) ;
#172 = DIRECTION ( 'NONE',  ( -0.0000000000000000000, -1.000000000000000000, -0.0000000000000000000 ) ) ;
#173 = VECTOR ( 'NONE', #172, 1000.000000000000000 ) ;
#174 = CARTESIAN_POINT ( 'NONE',  ( 2.449212707644754500E-015, 1000.000000000000000, 20.00000000000000000 ) ) ;
#175 = LINE ( 'NONE', #174, #173 ) ;
#176 = CARTESIAN_POINT ( 'NONE',  ( 2.449212707644754500E-015, 1000.000000000000000, 20.00000000000000000 ) ) ;
#177 = CARTESIAN_POINT ( 'NONE',  ( 0.0000000000000000000, 1000.000000000000000, -20.00000000000000000 ) ) ;
#178 = DIRECTION ( 'NONE',  ( 0.0000000000000000000, 0.0000000000000000000, 1.000000000000000000 ) ) ;
#179 = DIRECTION ( 'NONE',  ( 0.0000000000000000000, 1.000000000000000000, 0.0000000000000000000 ) ) ;
#180 = CARTESIAN_POINT ( 'NONE',  ( 0.0000000000000000000, 1000.000000000000000, 0.0000000000000000000 ) ) ;
#181 = AXIS2_PLACEMENT_3D ( 'NONE', #180, #179, #178 ) ;
#182 = DIRECTION ( 'NONE',  ( 0.0000000000000000000, 0.0000000000000000000, -1.000000000000000000 ) ) ;
#183 = DIRECTION ( 'NONE',  ( -0.0000000000000000000, -1.000000000000000000, -0.0000000000000000000 ) ) ;
#184 = AXIS2_PLACEMENT_3D ( 'NONE', #187, #183, #182 ) ;
#185 = CYLINDRICAL_SURFACE ( 'NONE', #184, 20.00000000000000000 ) ;
#186 = CIRCLE ( 'NONE', #181, 20.00000000000000000 ) ;
#187 = CARTESIAN_POINT ( 'NONE',  ( 0.0000000000000000000, 1000.000000000000000, 0.0000000000000000000 ) ) ;
#188 = FACE_OUTER_BOUND ( 'NONE', #141, .T. ) ;
#189 =( GEOMETRIC_REPRESENTATION_CONTEXT ( 3 ) GLOBAL_UNCERTAINTY_ASSIGNED_CONTEXT ( ( #49 ) ) GLOBAL_UNIT_ASSIGNED_CONTEXT ( ( #52, #51, #50 ) ) REPRESENTATION_CONTEXT ( 'NONE', 'WORKASPACE' ) );
#190 = ORIENTED_EDGE ( 'NONE', *, *, #191, .F. ) ;
#191 = EDGE_CURVE ( 'NONE', #145, #144, #18, .T. ) ;
#192 = EDGE_LOOP ( 'NONE', ( #150, #152 ) ) ;
#193 = ORIENTED_EDGE ( 'NONE', *, *, #194, .F. ) ;
#194 = EDGE_CURVE ( 'NONE', #132, #138, #13, .T. ) ;
#195 = ADVANCED_FACE ( 'NONE', ( #9, #8 ), #7, .T. ) ;
#196 = EDGE_LOOP ( 'NONE', ( #197, #92 ) ) ;
#197 = ORIENTED_EDGE ( 'NONE', *, *, #198, .T. ) ;
#198 = EDGE_CURVE ( 'NONE', #132, #131, #1, .T. ) ;
#199 = EDGE_LOOP ( 'NONE', ( #163, #190 ) ) ;
ENDSEC;
END-ISO-10303-21;
