ISO-10303-21;
HEADER;
FILE_DESCRIPTION (( 'STEP AP214' ),
    '1' );
FILE_NAME ('AWV 10.STEP',
    '2018-05-12T14:39:14',
    ( 'CADnetwork' ),
    ( '' ),
    'SwSTEP 2.0',
    'SolidWorks 2014',
    '' );
FILE_SCHEMA (( 'AUTOMOTIVE_DESIGN' ));
ENDSEC;

DATA;
#1 = ORIENTED_EDGE ( 'NONE', *, *, #77, .F. ) ;
#2 = CIRCLE ( 'NONE', #159, 49.00000000000000000 ) ;
#3 = CARTESIAN_POINT ( 'NONE',  ( 49.00000000000000000, 0.0000000000000000000, -20.00000000000000000 ) ) ;
#4 = DIRECTION ( 'NONE',  ( 1.713307136767216800E-016, -0.0000000000000000000, 1.000000000000000000 ) ) ;
#5 = ORIENTED_EDGE ( 'NONE', *, *, #297, .F. ) ;
#6 = PRESENTATION_STYLE_ASSIGNMENT (( #398 ) ) ;
#7 = DIRECTION ( 'NONE',  ( -1.000000000000000000, 0.0000000000000000000, 0.0000000000000000000 ) ) ;
#8 = ADVANCED_FACE ( 'NONE', ( #397 ), #135, .F. ) ;
#9 = LINE ( 'NONE', #3, #234 ) ;
#10 = DIRECTION ( 'NONE',  ( 0.0000000000000000000, 0.0000000000000000000, -1.000000000000000000 ) ) ;
#11 = DIRECTION ( 'NONE',  ( -0.0000000000000000000, -0.0000000000000000000, 1.000000000000000000 ) ) ;
#12 = VECTOR ( 'NONE', #235, 1000.000000000000000 ) ;
#13 = VECTOR ( 'NONE', #141, 1000.000000000000000 ) ;
#14 = DIRECTION ( 'NONE',  ( 0.0000000000000000000, 0.0000000000000000000, -1.000000000000000000 ) ) ;
#15 = ORIENTED_EDGE ( 'NONE', *, *, #333, .T. ) ;
#16 = DIRECTION ( 'NONE',  ( -0.0000000000000000000, 1.000000000000000000, -0.0000000000000000000 ) ) ;
#17 = EDGE_CURVE ( 'NONE', #74, #55, #195, .T. ) ;
#18 = ORIENTED_EDGE ( 'NONE', *, *, #219, .F. ) ;
#19 = DIRECTION ( 'NONE',  ( -1.000000000000000000, -0.0000000000000000000, -0.0000000000000000000 ) ) ;
#20 = ORIENTED_EDGE ( 'NONE', *, *, #341, .T. ) ;
#21 = CARTESIAN_POINT ( 'NONE',  ( 130.0000000000000000, 208.9999999999999700, 0.0000000000000000000 ) ) ;
#22 = FACE_OUTER_BOUND ( 'NONE', #213, .T. ) ;
#23 = FACE_OUTER_BOUND ( 'NONE', #423, .T. ) ;
#24 = ADVANCED_FACE ( 'NONE', ( #424 ), #138, .F. ) ;
#25 = EDGE_CURVE ( 'NONE', #35, #230, #328, .T. ) ;
#26 = SURFACE_STYLE_FILL_AREA ( #401 ) ;
#27 = PLANE ( 'NONE',  #352 ) ;
#28 = ORIENTED_EDGE ( 'NONE', *, *, #392, .F. ) ;
#29 = EDGE_CURVE ( 'NONE', #230, #74, #364, .T. ) ;
#30 = ADVANCED_FACE ( 'NONE', ( #313 ), #182, .T. ) ;
#31 = LINE ( 'NONE', #409, #81 ) ;
#32 = VECTOR ( 'NONE', #357, 1000.000000000000000 ) ;
#33 = VECTOR ( 'NONE', #80, 1000.000000000000000 ) ;
#34 = CARTESIAN_POINT ( 'NONE',  ( -130.0000000000000000, 0.0000000000000000000, 0.0000000000000000000 ) ) ;
#35 = VERTEX_POINT ( 'NONE', #193 ) ;
#36 = CARTESIAN_POINT ( 'NONE',  ( -105.0000000000000100, -146.0000000000000000, 25.00000000000000700 ) ) ;
#37 = DIRECTION ( 'NONE',  ( 0.0000000000000000000, 1.000000000000000000, 0.0000000000000000000 ) ) ;
#38 = DIRECTION ( 'NONE',  ( 1.713307136767216800E-016, 0.0000000000000000000, -1.000000000000000000 ) ) ;
#39 =( NAMED_UNIT ( * ) PLANE_ANGLE_UNIT ( ) SI_UNIT ( $, .RADIAN. ) );
#40 = ADVANCED_BREP_SHAPE_REPRESENTATION ( 'AWV 10', ( #377, #92 ), #241 ) ;
#41 = CARTESIAN_POINT ( 'NONE',  ( -105.0000000000000400, -146.0000000000000000, 106.0000000000000100 ) ) ;
#42 = EDGE_CURVE ( 'NONE', #151, #79, #73, .T. ) ;
#43 = ORIENTED_EDGE ( 'NONE', *, *, #410, .F. ) ;
#44 = ADVANCED_FACE ( 'NONE', ( #165 ), #145, .F. ) ;
#45 = VERTEX_POINT ( 'NONE', #59 ) ;
#46 = MECHANICAL_DESIGN_GEOMETRIC_PRESENTATION_REPRESENTATION (  '', ( #68 ), #330 ) ;
#47 = DIRECTION ( 'NONE',  ( -1.000000000000000000, 0.0000000000000000000, -0.0000000000000000000 ) ) ;
#48 = VECTOR ( 'NONE', #304, 1000.000000000000000 ) ;
#49 = CARTESIAN_POINT ( 'NONE',  ( 130.0000000000000000, 208.9999999999999700, 0.0000000000000000000 ) ) ;
#50 = CARTESIAN_POINT ( 'NONE',  ( 130.0000000000000000, -146.0000000000000000, 131.0000000000000000 ) ) ;
#51 = VECTOR ( 'NONE', #323, 1000.000000000000000 ) ;
#52 = DIRECTION ( 'NONE',  ( 0.0000000000000000000, -0.8660254037844364900, -0.5000000000000037700 ) ) ;
#53 = ORIENTED_EDGE ( 'NONE', *, *, #113, .T. ) ;
#54 = EDGE_CURVE ( 'NONE', #232, #220, #254, .T. ) ;
#55 = VERTEX_POINT ( 'NONE', #250 ) ;
#56 = EDGE_LOOP ( 'NONE', ( #167, #369, #354, #197 ) ) ;
#57 = CARTESIAN_POINT ( 'NONE',  ( 0.0000000000000000000, 0.0000000000000000000, -20.00000000000000000 ) ) ;
#58 = CYLINDRICAL_SURFACE ( 'NONE', #294, 49.00000000000000000 ) ;
#59 = CARTESIAN_POINT ( 'NONE',  ( 105.0000000000000300, -160.9999999999999700, 25.00000000000000700 ) ) ;
#60 = VECTOR ( 'NONE', #94, 1000.000000000000000 ) ;
#61 = CARTESIAN_POINT ( 'NONE',  ( 0.0000000000000000000, 0.0000000000000000000, -20.00000000000000000 ) ) ;
#62 = FACE_OUTER_BOUND ( 'NONE', #205, .T. ) ;
#63 = ORIENTED_EDGE ( 'NONE', *, *, #358, .F. ) ;
#64 = CARTESIAN_POINT ( 'NONE',  ( -105.0000000000000300, -160.9999999999999700, 25.00000000000000700 ) ) ;
#65 = AXIS2_PLACEMENT_3D ( 'NONE', #85, #266, #339 ) ;
#66 = ORIENTED_EDGE ( 'NONE', *, *, #416, .F. ) ;
#67 = DIRECTION ( 'NONE',  ( -0.0000000000000000000, -0.0000000000000000000, 1.000000000000000000 ) ) ;
#68 = STYLED_ITEM ( 'NONE', ( #6 ), #40 ) ;
#69 = ORIENTED_EDGE ( 'NONE', *, *, #125, .T. ) ;
#70 = VERTEX_POINT ( 'NONE', #155 ) ;
#71 = STYLED_ITEM ( 'NONE', ( #185 ), #377 ) ;
#72 = UNCERTAINTY_MEASURE_WITH_UNIT (LENGTH_MEASURE( 1.000000000000000100E-005 ), #210, 'distance_accuracy_value', 'NONE');
#73 = LINE ( 'NONE', #183, #208 ) ;
#74 = VERTEX_POINT ( 'NONE', #169 ) ;
#75 = DIRECTION ( 'NONE',  ( 1.000000000000000000, 0.0000000000000000000, 0.0000000000000000000 ) ) ;
#76 = VERTEX_POINT ( 'NONE', #420 ) ;
#77 = EDGE_CURVE ( 'NONE', #374, #45, #90, .T. ) ;
#78 = CARTESIAN_POINT ( 'NONE',  ( 105.0000000000000400, -160.9999999999999700, 106.0000000000000100 ) ) ;
#79 = VERTEX_POINT ( 'NONE', #372 ) ;
#80 = DIRECTION ( 'NONE',  ( -0.0000000000000000000, 1.000000000000000000, -0.0000000000000000000 ) ) ;
#81 = VECTOR ( 'NONE', #295, 1000.000000000000000 ) ;
#82 = CARTESIAN_POINT ( 'NONE',  ( -105.0000000000000300, -160.9999999999999700, 25.00000000000000700 ) ) ;
#83 = FACE_OUTER_BOUND ( 'NONE', #418, .T. ) ;
#84 =( NAMED_UNIT ( * ) PLANE_ANGLE_UNIT ( ) SI_UNIT ( $, .RADIAN. ) );
#85 = CARTESIAN_POINT ( 'NONE',  ( 130.0000000000000000, -146.0000000000000000, 0.0000000000000000000 ) ) ;
#86 = ORIENTED_EDGE ( 'NONE', *, *, #42, .F. ) ;
#87 = FACE_OUTER_BOUND ( 'NONE', #56, .T. ) ;
#88 = AXIS2_PLACEMENT_3D ( 'NONE', #190, #181, #124 ) ;
#89 = ORIENTED_EDGE ( 'NONE', *, *, #247, .T. ) ;
#90 = LINE ( 'NONE', #64, #177 ) ;
#91 = CARTESIAN_POINT ( 'NONE',  ( -105.0000000000000400, -160.9999999999999700, 106.0000000000000100 ) ) ;
#92 = AXIS2_PLACEMENT_3D ( 'NONE', #192, #393, #389 ) ;
#93 = DIRECTION ( 'NONE',  ( 0.0000000000000000000, -0.9917581515711495500, 0.1281240367463367700 ) ) ;
#94 = DIRECTION ( 'NONE',  ( -0.0000000000000000000, 1.000000000000000000, -0.0000000000000000000 ) ) ;
#95 = SURFACE_STYLE_FILL_AREA ( #271 ) ;
#96 = EDGE_LOOP ( 'NONE', ( #379, #412, #43, #365 ) ) ;
#97 = COLOUR_RGB ( '',0.7529411764705882200, 0.7529411764705882200, 0.7529411764705882200 ) ;
#98 = VECTOR ( 'NONE', #37, 1000.000000000000000 ) ;
#99 = LINE ( 'NONE', #21, #118 ) ;
#100 = LINE ( 'NONE', #119, #303 ) ;
#101 = DIRECTION ( 'NONE',  ( 1.000000000000000000, 0.0000000000000000000, 0.0000000000000000000 ) ) ;
#102 = VERTEX_POINT ( 'NONE', #292 ) ;
#103 = PLANE ( 'NONE',  #129 ) ;
#104 = CARTESIAN_POINT ( 'NONE',  ( 130.0000000000000000, 155.8837752345538400, 92.00000000000000000 ) ) ;
#105 = VERTEX_POINT ( 'NONE', #168 ) ;
#106 =( NAMED_UNIT ( * ) SI_UNIT ( $, .STERADIAN. ) SOLID_ANGLE_UNIT ( ) );
#107 = CARTESIAN_POINT ( 'NONE',  ( 130.0000000000000000, 208.9999999999999700, 0.0000000000000000000 ) ) ;
#108 = LINE ( 'NONE', #348, #269 ) ;
#109 = VECTOR ( 'NONE', #16, 1000.000000000000000 ) ;
#110 = DIRECTION ( 'NONE',  ( 1.000000000000000000, -0.0000000000000000000, 0.0000000000000000000 ) ) ;
#111 = VERTEX_POINT ( 'NONE', #421 ) ;
#112 = UNCERTAINTY_MEASURE_WITH_UNIT (LENGTH_MEASURE( 1.000000000000000100E-005 ), #396, 'distance_accuracy_value', 'NONE');
#113 = EDGE_CURVE ( 'NONE', #55, #299, #133, .T. ) ;
#114 = ORIENTED_EDGE ( 'NONE', *, *, #273, .T. ) ;
#115 = DIRECTION ( 'NONE',  ( 0.0000000000000000000, 0.0000000000000000000, -1.000000000000000000 ) ) ;
#116 = ORIENTED_EDGE ( 'NONE', *, *, #341, .F. ) ;
#117 = PRODUCT_DEFINITION ( 'UNKNOWN', '', #126, #258 ) ;
#118 = VECTOR ( 'NONE', #19, 1000.000000000000000 ) ;
#119 = CARTESIAN_POINT ( 'NONE',  ( -105.0000000000000400, -160.9999999999999700, 106.0000000000000100 ) ) ;
#120 = EDGE_CURVE ( 'NONE', #220, #232, #2, .T. ) ;
#121 = VERTEX_POINT ( 'NONE', #285 ) ;
#122 = CARTESIAN_POINT ( 'NONE',  ( 130.0000000000000000, 208.9999999999999700, 0.0000000000000000000 ) ) ;
#123 = ORIENTED_EDGE ( 'NONE', *, *, #54, .F. ) ;
#124 = DIRECTION ( 'NONE',  ( 0.0000000000000000000, -0.0000000000000000000, -1.000000000000000000 ) ) ;
#125 = EDGE_CURVE ( 'NONE', #102, #121, #157, .T. ) ;
#126 = PRODUCT_DEFINITION_FORMATION_WITH_SPECIFIED_SOURCE ( 'ANY', '', #226, .NOT_KNOWN. ) ;
#127 = AXIS2_PLACEMENT_3D ( 'NONE', #327, #180, #331 ) ;
#128 = ORIENTED_EDGE ( 'NONE', *, *, #243, .T. ) ;
#129 = AXIS2_PLACEMENT_3D ( 'NONE', #380, #170, #228 ) ;
#130 = EDGE_LOOP ( 'NONE', ( #154, #136, #5, #86 ) ) ;
#131 = SHAPE_DEFINITION_REPRESENTATION ( #293, #40 ) ;
#132 = PLANE ( 'NONE',  #65 ) ;
#133 = LINE ( 'NONE', #164, #98 ) ;
#134 = VECTOR ( 'NONE', #174, 1000.000000000000000 ) ;
#135 = PLANE ( 'NONE',  #171 ) ;
#136 = ORIENTED_EDGE ( 'NONE', *, *, #290, .F. ) ;
#137 = APPLICATION_CONTEXT ( 'automotive_design' ) ;
#138 = PLANE ( 'NONE',  #152 ) ;
#139 = CARTESIAN_POINT ( 'NONE',  ( -105.0000000000000400, -146.0000000000000000, 106.0000000000000100 ) ) ;
#140 = EDGE_CURVE ( 'NONE', #105, #320, #242, .T. ) ;
#141 = DIRECTION ( 'NONE',  ( -1.000000000000000000, -0.0000000000000000000, -0.0000000000000000000 ) ) ;
#142 = DIRECTION ( 'NONE',  ( 0.0000000000000000000, 0.0000000000000000000, -1.000000000000000000 ) ) ;
#143 = EDGE_LOOP ( 'NONE', ( #314, #198, #257, #321 ) ) ;
#144 = DIRECTION ( 'NONE',  ( -1.000000000000000000, 0.0000000000000000000, -0.0000000000000000000 ) ) ;
#145 = PLANE ( 'NONE',  #156 ) ;
#146 = FACE_OUTER_BOUND ( 'NONE', #387, .T. ) ;
#147 = CARTESIAN_POINT ( 'NONE',  ( -105.0000000000000300, -160.9999999999999700, 25.00000000000000700 ) ) ;
#148 = FACE_BOUND ( 'NONE', #130, .T. ) ;
#149 = PRODUCT_RELATED_PRODUCT_CATEGORY ( 'part', '', ( #226 ) ) ;
#150 = DIRECTION ( 'NONE',  ( -1.000000000000000000, 0.0000000000000000000, 1.713307136767216800E-016 ) ) ;
#151 = VERTEX_POINT ( 'NONE', #36 ) ;
#152 = AXIS2_PLACEMENT_3D ( 'NONE', #368, #150, #278 ) ;
#153 = AXIS2_PLACEMENT_3D ( 'NONE', #57, #14, #343 ) ;
#154 = ORIENTED_EDGE ( 'NONE', *, *, #224, .F. ) ;
#155 = CARTESIAN_POINT ( 'NONE',  ( 130.0000000000000000, -146.0000000000000000, 0.0000000000000000000 ) ) ;
#156 = AXIS2_PLACEMENT_3D ( 'NONE', #104, #317, #325 ) ;
#157 = LINE ( 'NONE', #91, #60 ) ;
#158 = PLANE ( 'NONE',  #274 ) ;
#159 = AXIS2_PLACEMENT_3D ( 'NONE', #61, #10, #7 ) ;
#160 = EDGE_LOOP ( 'NONE', ( #248, #187, #66, #162 ) ) ;
#161 = DIRECTION ( 'NONE',  ( 1.000000000000000000, -0.0000000000000000000, 0.0000000000000000000 ) ) ;
#162 = ORIENTED_EDGE ( 'NONE', *, *, #25, .T. ) ;
#163 = EDGE_CURVE ( 'NONE', #360, #299, #99, .T. ) ;
#164 = CARTESIAN_POINT ( 'NONE',  ( -130.0000000000000000, -146.0000000000000000, 0.0000000000000000000 ) ) ;
#165 = FACE_OUTER_BOUND ( 'NONE', #160, .T. ) ;
#166 = DIRECTION ( 'NONE',  ( 1.000000000000000000, 0.0000000000000000000, 0.0000000000000000000 ) ) ;
#167 = ORIENTED_EDGE ( 'NONE', *, *, #259, .T. ) ;
#168 = CARTESIAN_POINT ( 'NONE',  ( 105.0000000000000400, -160.9999999999999700, 106.0000000000000100 ) ) ;
#169 = CARTESIAN_POINT ( 'NONE',  ( -130.0000000000000000, -146.0000000000000000, 131.0000000000000000 ) ) ;
#170 = DIRECTION ( 'NONE',  ( 1.000000000000000000, 0.0000000000000000000, 1.713307136767216800E-016 ) ) ;
#171 = AXIS2_PLACEMENT_3D ( 'NONE', #283, #264, #144 ) ;
#172 = CARTESIAN_POINT ( 'NONE',  ( 130.0000000000000000, -146.0000000000000000, 0.0000000000000000000 ) ) ;
#173 = ORIENTED_EDGE ( 'NONE', *, *, #363, .F. ) ;
#174 = DIRECTION ( 'NONE',  ( 0.0000000000000000000, -0.5000000000000038900, 0.8660254037844364900 ) ) ;
#175 = PLANE ( 'NONE',  #239 ) ;
#176 = ADVANCED_FACE ( 'NONE', ( #342 ), #27, .F. ) ;
#177 = VECTOR ( 'NONE', #422, 1000.000000000000000 ) ;
#178 = DIRECTION ( 'NONE',  ( -1.000000000000000000, -0.0000000000000000000, -0.0000000000000000000 ) ) ;
#179 = CARTESIAN_POINT ( 'NONE',  ( 130.0000000000000000, 155.8837752345538400, 92.00000000000000000 ) ) ;
#180 = DIRECTION ( 'NONE',  ( -0.0000000000000000000, 1.000000000000000000, 0.0000000000000000000 ) ) ;
#181 = DIRECTION ( 'NONE',  ( 0.0000000000000000000, -1.000000000000000000, 0.0000000000000000000 ) ) ;
#182 = PLANE ( 'NONE',  #88 ) ;
#183 = CARTESIAN_POINT ( 'NONE',  ( -105.0000000000000300, -146.0000000000000000, 25.00000000000000700 ) ) ;
#184 = LINE ( 'NONE', #214, #32 ) ;
#185 = PRESENTATION_STYLE_ASSIGNMENT (( #209 ) ) ;
#186 = ORIENTED_EDGE ( 'NONE', *, *, #224, .T. ) ;
#187 = ORIENTED_EDGE ( 'NONE', *, *, #273, .F. ) ;
#188 = ADVANCED_FACE ( 'NONE', ( #62, #194 ), #132, .F. ) ;
#189 = DIRECTION ( 'NONE',  ( 0.0000000000000000000, -0.9917581515711495500, 0.1281240367463367700 ) ) ;
#190 = CARTESIAN_POINT ( 'NONE',  ( 0.0000000000000000000, -160.9999999999999700, 0.0000000000000000000 ) ) ;
#191 = PLANE ( 'NONE',  #249 ) ;
#192 = CARTESIAN_POINT ( 'NONE',  ( 0.0000000000000000000, 0.0000000000000000000, 0.0000000000000000000 ) ) ;
#193 = CARTESIAN_POINT ( 'NONE',  ( 130.0000000000000000, 155.8837752345538400, 92.00000000000000000 ) ) ;
#194 = FACE_BOUND ( 'NONE', #419, .T. ) ;
#195 = LINE ( 'NONE', #286, #291 ) ;
#196 = CARTESIAN_POINT ( 'NONE',  ( 130.0000000000000000, 0.0000000000000000000, 0.0000000000000000000 ) ) ;
#197 = ORIENTED_EDGE ( 'NONE', *, *, #416, .T. ) ;
#198 = ORIENTED_EDGE ( 'NONE', *, *, #29, .F. ) ;
#199 = CARTESIAN_POINT ( 'NONE',  ( 49.00000000000000000, 0.0000000000000000000, 0.0000000000000000000 ) ) ;
#200 = ORIENTED_EDGE ( 'NONE', *, *, #333, .F. ) ;
#201 = LINE ( 'NONE', #362, #391 ) ;
#202 = LINE ( 'NONE', #233, #12 ) ;
#203 = EDGE_LOOP ( 'NONE', ( #289, #63, #1, #128 ) ) ;
#204 = UNCERTAINTY_MEASURE_WITH_UNIT (LENGTH_MEASURE( 1.000000000000000100E-005 ), #311, 'distance_accuracy_value', 'NONE');
#205 = EDGE_LOOP ( 'NONE', ( #53, #276, #28, #89 ) ) ;
#206 = PLANE ( 'NONE',  #218 ) ;
#207 = LINE ( 'NONE', #245, #302 ) ;
#208 = VECTOR ( 'NONE', #75, 1000.000000000000000 ) ;
#209 = SURFACE_STYLE_USAGE ( .BOTH. , #408 ) ;
#210 =( LENGTH_UNIT ( ) NAMED_UNIT ( * ) SI_UNIT ( .MILLI., .METRE. ) );
#211 = EDGE_LOOP ( 'NONE', ( #15, #244, #399, #336 ) ) ;
#212 = CLOSED_SHELL ( 'NONE', ( #246, #188, #334, #376, #44, #411, #176, #300, #315, #24, #8, #30, #403, #340 ) ) ;
#213 = EDGE_LOOP ( 'NONE', ( #123, #316, #349, #116 ) ) ;
#214 = CARTESIAN_POINT ( 'NONE',  ( 105.0000000000000300, -160.9999999999999700, 25.00000000000000700 ) ) ;
#215 = CARTESIAN_POINT ( 'NONE',  ( 130.0000000000000000, -146.0000000000000000, 131.0000000000000000 ) ) ;
#216 = FACE_OUTER_BOUND ( 'NONE', #324, .T. ) ;
#217 = LINE ( 'NONE', #41, #13 ) ;
#218 = AXIS2_PLACEMENT_3D ( 'NONE', #229, #406, #47 ) ;
#219 = EDGE_CURVE ( 'NONE', #305, #76, #345, .T. ) ;
#220 = VERTEX_POINT ( 'NONE', #253 ) ;
#221 = CARTESIAN_POINT ( 'NONE',  ( -49.00000000000000000, 6.000769315822030900E-015, -20.00000000000000000 ) ) ;
#222 = AXIS2_PLACEMENT_3D ( 'NONE', #346, #67, #166 ) ;
#223 = FACE_OUTER_BOUND ( 'NONE', #203, .T. ) ;
#224 = EDGE_CURVE ( 'NONE', #121, #151, #361, .T. ) ;
#225 = ORIENTED_EDGE ( 'NONE', *, *, #125, .F. ) ;
#226 = PRODUCT ( 'AWV 10', 'AWV 10', '', ( #388 ) ) ;
#227 = AXIS2_PLACEMENT_3D ( 'NONE', #335, #344, #366 ) ;
#228 = DIRECTION ( 'NONE',  ( 1.713307136767216800E-016, 0.0000000000000000000, -1.000000000000000000 ) ) ;
#229 = CARTESIAN_POINT ( 'NONE',  ( 0.0000000000000000000, 0.0000000000000000000, -20.00000000000000000 ) ) ;
#230 = VERTEX_POINT ( 'NONE', #417 ) ;
#231 = DIRECTION ( 'NONE',  ( 1.000000000000000000, 0.0000000000000000000, 0.0000000000000000000 ) ) ;
#232 = VERTEX_POINT ( 'NONE', #221 ) ;
#233 = CARTESIAN_POINT ( 'NONE',  ( -105.0000000000000400, -160.9999999999999700, 106.0000000000000100 ) ) ;
#234 = VECTOR ( 'NONE', #301, 1000.000000000000000 ) ;
#235 = DIRECTION ( 'NONE',  ( -1.000000000000000000, -0.0000000000000000000, -0.0000000000000000000 ) ) ;
#236 = DIRECTION ( 'NONE',  ( 0.0000000000000000000, 0.0000000000000000000, -1.000000000000000000 ) ) ;
#237 = ORIENTED_EDGE ( 'NONE', *, *, #243, .F. ) ;
#238 = DIRECTION ( 'NONE',  ( 0.0000000000000000000, 0.5000000000000037700, -0.8660254037844364900 ) ) ;
#239 = AXIS2_PLACEMENT_3D ( 'NONE', #82, #312, #101 ) ;
#240 = EDGE_LOOP ( 'NONE', ( #385, #367, #277, #114 ) ) ;
#241 =( GEOMETRIC_REPRESENTATION_CONTEXT ( 3 ) GLOBAL_UNCERTAINTY_ASSIGNED_CONTEXT ( ( #204 ) ) GLOBAL_UNIT_ASSIGNED_CONTEXT ( ( #311, #39, #414 ) ) REPRESENTATION_CONTEXT ( 'NONE', 'WORKASPACE' ) );
#242 = LINE ( 'NONE', #78, #33 ) ;
#243 = EDGE_CURVE ( 'NONE', #374, #151, #370, .T. ) ;
#244 = ORIENTED_EDGE ( 'NONE', *, *, #77, .T. ) ;
#245 = CARTESIAN_POINT ( 'NONE',  ( -49.00000000000000000, 6.000769315822030900E-015, -20.00000000000000000 ) ) ;
#246 = ADVANCED_FACE ( 'NONE', ( #22 ), #356, .T. ) ;
#247 = EDGE_CURVE ( 'NONE', #70, #55, #255, .T. ) ;
#248 = ORIENTED_EDGE ( 'NONE', *, *, #29, .T. ) ;
#249 = AXIS2_PLACEMENT_3D ( 'NONE', #122, #52, #238 ) ;
#250 = CARTESIAN_POINT ( 'NONE',  ( -130.0000000000000000, -146.0000000000000000, 0.0000000000000000000 ) ) ;
#251 = LINE ( 'NONE', #50, #51 ) ;
#252 = CARTESIAN_POINT ( 'NONE',  ( -105.0000000000000300, -160.9999999999999700, 25.00000000000000700 ) ) ;
#253 = CARTESIAN_POINT ( 'NONE',  ( 49.00000000000000000, 0.0000000000000000000, -20.00000000000000000 ) ) ;
#254 = CIRCLE ( 'NONE', #153, 49.00000000000000000 ) ;
#255 = LINE ( 'NONE', #172, #319 ) ;
#256 = PRESENTATION_LAYER_ASSIGNMENT (  '', '', ( #71 ) ) ;
#257 = ORIENTED_EDGE ( 'NONE', *, *, #282, .F. ) ;
#258 = PRODUCT_DEFINITION_CONTEXT ( 'detailed design', #384, 'design' ) ;
#259 = EDGE_CURVE ( 'NONE', #111, #70, #280, .T. ) ;
#260 = EDGE_CURVE ( 'NONE', #76, #305, #279, .T. ) ;
#261 = ORIENTED_EDGE ( 'NONE', *, *, #282, .T. ) ;
#262 = MECHANICAL_DESIGN_GEOMETRIC_PRESENTATION_REPRESENTATION (  '', ( #71 ), #284 ) ;
#263 = PLANE ( 'NONE',  #127 ) ;
#264 = DIRECTION ( 'NONE',  ( 0.0000000000000000000, 0.0000000000000000000, -1.000000000000000000 ) ) ;
#265 = LINE ( 'NONE', #322, #413 ) ;
#266 = DIRECTION ( 'NONE',  ( 0.0000000000000000000, 0.0000000000000000000, 1.000000000000000000 ) ) ;
#267 = VECTOR ( 'NONE', #115, 1000.000000000000000 ) ;
#268 = CARTESIAN_POINT ( 'NONE',  ( 0.0000000000000000000, 0.0000000000000000000, -20.00000000000000000 ) ) ;
#269 = VECTOR ( 'NONE', #4, 1000.000000000000000 ) ;
#270 = ORIENTED_EDGE ( 'NONE', *, *, #290, .T. ) ;
#271 = FILL_AREA_STYLE ('',( #310 ) ) ;
#272 = CARTESIAN_POINT ( 'NONE',  ( -130.0000000000000000, 155.8837752345538400, 92.00000000000000000 ) ) ;
#273 = EDGE_CURVE ( 'NONE', #111, #74, #251, .T. ) ;
#274 = AXIS2_PLACEMENT_3D ( 'NONE', #196, #110, #318 ) ;
#275 = ORIENTED_EDGE ( 'NONE', *, *, #140, .T. ) ;
#276 = ORIENTED_EDGE ( 'NONE', *, *, #163, .F. ) ;
#277 = ORIENTED_EDGE ( 'NONE', *, *, #259, .F. ) ;
#278 = DIRECTION ( 'NONE',  ( 1.713307136767216800E-016, 0.0000000000000000000, 1.000000000000000000 ) ) ;
#279 = CIRCLE ( 'NONE', #386, 49.00000000000000000 ) ;
#280 = LINE ( 'NONE', #215, #267 ) ;
#281 = ORIENTED_EDGE ( 'NONE', *, *, #219, .T. ) ;
#282 = EDGE_CURVE ( 'NONE', #299, #230, #371, .T. ) ;
#283 = CARTESIAN_POINT ( 'NONE',  ( -105.0000000000000400, -160.9999999999999700, 106.0000000000000100 ) ) ;
#284 =( GEOMETRIC_REPRESENTATION_CONTEXT ( 3 ) GLOBAL_UNCERTAINTY_ASSIGNED_CONTEXT ( ( #72 ) ) GLOBAL_UNIT_ASSIGNED_CONTEXT ( ( #210, #84, #106 ) ) REPRESENTATION_CONTEXT ( 'NONE', 'WORKASPACE' ) );
#285 = CARTESIAN_POINT ( 'NONE',  ( -105.0000000000000400, -146.0000000000000000, 106.0000000000000100 ) ) ;
#286 = CARTESIAN_POINT ( 'NONE',  ( -130.0000000000000000, -146.0000000000000000, 131.0000000000000000 ) ) ;
#287 = CARTESIAN_POINT ( 'NONE',  ( -130.0000000000000000, 208.9999999999999700, 0.0000000000000000000 ) ) ;
#288 = EDGE_LOOP ( 'NONE', ( #270, #225, #407, #275 ) ) ;
#289 = ORIENTED_EDGE ( 'NONE', *, *, #42, .T. ) ;
#290 = EDGE_CURVE ( 'NONE', #320, #121, #217, .T. ) ;
#291 = VECTOR ( 'NONE', #142, 1000.000000000000000 ) ;
#292 = CARTESIAN_POINT ( 'NONE',  ( -105.0000000000000400, -160.9999999999999700, 106.0000000000000100 ) ) ;
#293 = PRODUCT_DEFINITION_SHAPE ( 'NONE', 'NONE',  #117 ) ;
#294 = AXIS2_PLACEMENT_3D ( 'NONE', #268, #306, #231 ) ;
#295 = DIRECTION ( 'NONE',  ( 1.713307136767216800E-016, -0.0000000000000000000, 1.000000000000000000 ) ) ;
#296 = ORIENTED_EDGE ( 'NONE', *, *, #25, .F. ) ;
#297 = EDGE_CURVE ( 'NONE', #79, #320, #108, .T. ) ;
#298 = ORIENTED_EDGE ( 'NONE', *, *, #163, .T. ) ;
#299 = VERTEX_POINT ( 'NONE', #326 ) ;
#300 = ADVANCED_FACE ( 'NONE', ( #23 ), #103, .F. ) ;
#301 = DIRECTION ( 'NONE',  ( -0.0000000000000000000, -0.0000000000000000000, 1.000000000000000000 ) ) ;
#302 = VECTOR ( 'NONE', #11, 1000.000000000000000 ) ;
#303 = VECTOR ( 'NONE', #38, 1000.000000000000000 ) ;
#304 = DIRECTION ( 'NONE',  ( 0.0000000000000000000, -0.5000000000000038900, 0.8660254037844364900 ) ) ;
#305 = VERTEX_POINT ( 'NONE', #199 ) ;
#306 = DIRECTION ( 'NONE',  ( -0.0000000000000000000, -0.0000000000000000000, 1.000000000000000000 ) ) ;
#307 = ORIENTED_EDGE ( 'NONE', *, *, #54, .T. ) ;
#308 = ORIENTED_EDGE ( 'NONE', *, *, #120, .F. ) ;
#309 = ORIENTED_EDGE ( 'NONE', *, *, #120, .T. ) ;
#310 = FILL_AREA_STYLE_COLOUR ( '', #381 ) ;
#311 =( LENGTH_UNIT ( ) NAMED_UNIT ( * ) SI_UNIT ( .MILLI., .METRE. ) );
#312 = DIRECTION ( 'NONE',  ( -0.0000000000000000000, 0.0000000000000000000, 1.000000000000000000 ) ) ;
#313 = FACE_OUTER_BOUND ( 'NONE', #211, .T. ) ;
#314 = ORIENTED_EDGE ( 'NONE', *, *, #17, .F. ) ;
#315 = ADVANCED_FACE ( 'NONE', ( #223 ), #175, .F. ) ;
#316 = ORIENTED_EDGE ( 'NONE', *, *, #375, .T. ) ;
#317 = DIRECTION ( 'NONE',  ( 0.0000000000000000000, -0.1281240367463367900, -0.9917581515711496600 ) ) ;
#318 = DIRECTION ( 'NONE',  ( 0.0000000000000000000, 0.0000000000000000000, -1.000000000000000000 ) ) ;
#319 = VECTOR ( 'NONE', #350, 1000.000000000000000 ) ;
#320 = VERTEX_POINT ( 'NONE', #390 ) ;
#321 = ORIENTED_EDGE ( 'NONE', *, *, #113, .F. ) ;
#322 = CARTESIAN_POINT ( 'NONE',  ( 130.0000000000000000, 155.8837752345538400, 92.00000000000000000 ) ) ;
#323 = DIRECTION ( 'NONE',  ( -1.000000000000000000, -0.0000000000000000000, -0.0000000000000000000 ) ) ;
#324 = EDGE_LOOP ( 'NONE', ( #261, #296, #173, #298 ) ) ;
#325 = DIRECTION ( 'NONE',  ( 0.0000000000000000000, 0.9917581515711495500, -0.1281240367463367700 ) ) ;
#326 = CARTESIAN_POINT ( 'NONE',  ( -130.0000000000000000, 208.9999999999999700, 0.0000000000000000000 ) ) ;
#327 = CARTESIAN_POINT ( 'NONE',  ( 130.0000000000000000, -146.0000000000000000, 131.0000000000000000 ) ) ;
#328 = LINE ( 'NONE', #179, #355 ) ;
#329 = ORIENTED_EDGE ( 'NONE', *, *, #260, .F. ) ;
#330 =( GEOMETRIC_REPRESENTATION_CONTEXT ( 3 ) GLOBAL_UNCERTAINTY_ASSIGNED_CONTEXT ( ( #112 ) ) GLOBAL_UNIT_ASSIGNED_CONTEXT ( ( #396, #395, #394 ) ) REPRESENTATION_CONTEXT ( 'NONE', 'WORKASPACE' ) );
#331 = DIRECTION ( 'NONE',  ( 0.0000000000000000000, -0.0000000000000000000, 1.000000000000000000 ) ) ;
#332 = DIRECTION ( 'NONE',  ( 0.0000000000000000000, 1.000000000000000000, 0.0000000000000000000 ) ) ;
#333 = EDGE_CURVE ( 'NONE', #102, #374, #100, .T. ) ;
#334 = ADVANCED_FACE ( 'NONE', ( #415, #148 ), #263, .F. ) ;
#335 = CARTESIAN_POINT ( 'NONE',  ( 0.0000000000000000000, 0.0000000000000000000, 0.0000000000000000000 ) ) ;
#336 = ORIENTED_EDGE ( 'NONE', *, *, #347, .T. ) ;
#337 = DIRECTION ( 'NONE',  ( 1.713307136767216800E-016, 0.0000000000000000000, -1.000000000000000000 ) ) ;
#338 = LINE ( 'NONE', #107, #48 ) ;
#339 = DIRECTION ( 'NONE',  ( 1.000000000000000000, 0.0000000000000000000, -0.0000000000000000000 ) ) ;
#340 = ADVANCED_FACE ( 'NONE', ( #83 ), #206, .T. ) ;
#341 = EDGE_CURVE ( 'NONE', #220, #305, #9, .T. ) ;
#342 = FACE_OUTER_BOUND ( 'NONE', #143, .T. ) ;
#343 = DIRECTION ( 'NONE',  ( -1.000000000000000000, 0.0000000000000000000, 0.0000000000000000000 ) ) ;
#344 = DIRECTION ( 'NONE',  ( -0.0000000000000000000, -0.0000000000000000000, -1.000000000000000000 ) ) ;
#345 = CIRCLE ( 'NONE', #227, 49.00000000000000000 ) ;
#346 = CARTESIAN_POINT ( 'NONE',  ( 0.0000000000000000000, 0.0000000000000000000, -20.00000000000000000 ) ) ;
#347 = EDGE_CURVE ( 'NONE', #105, #102, #202, .T. ) ;
#348 = CARTESIAN_POINT ( 'NONE',  ( 105.0000000000000400, -146.0000000000000000, 106.0000000000000100 ) ) ;
#349 = ORIENTED_EDGE ( 'NONE', *, *, #260, .T. ) ;
#350 = DIRECTION ( 'NONE',  ( -1.000000000000000000, -0.0000000000000000000, -0.0000000000000000000 ) ) ;
#351 = CARTESIAN_POINT ( 'NONE',  ( 0.0000000000000000000, 0.0000000000000000000, 0.0000000000000000000 ) ) ;
#352 = AXIS2_PLACEMENT_3D ( 'NONE', #34, #161, #236 ) ;
#353 = PRESENTATION_LAYER_ASSIGNMENT (  '', '', ( #68 ) ) ;
#354 = ORIENTED_EDGE ( 'NONE', *, *, #363, .T. ) ;
#355 = VECTOR ( 'NONE', #178, 1000.000000000000000 ) ;
#356 = CYLINDRICAL_SURFACE ( 'NONE', #222, 49.00000000000000000 ) ;
#357 = DIRECTION ( 'NONE',  ( -0.0000000000000000000, 1.000000000000000000, -0.0000000000000000000 ) ) ;
#358 = EDGE_CURVE ( 'NONE', #45, #79, #184, .T. ) ;
#359 = DIRECTION ( 'NONE',  ( -0.0000000000000000000, -0.0000000000000000000, -1.000000000000000000 ) ) ;
#360 = VERTEX_POINT ( 'NONE', #49 ) ;
#361 = LINE ( 'NONE', #139, #405 ) ;
#362 = CARTESIAN_POINT ( 'NONE',  ( 130.0000000000000000, -146.0000000000000000, 0.0000000000000000000 ) ) ;
#363 = EDGE_CURVE ( 'NONE', #360, #35, #338, .T. ) ;
#364 = LINE ( 'NONE', #272, #382 ) ;
#365 = ORIENTED_EDGE ( 'NONE', *, *, #358, .T. ) ;
#366 = DIRECTION ( 'NONE',  ( 1.000000000000000000, 0.0000000000000000000, 0.0000000000000000000 ) ) ;
#367 = ORIENTED_EDGE ( 'NONE', *, *, #247, .F. ) ;
#368 = CARTESIAN_POINT ( 'NONE',  ( 105.0000000000000400, -160.9999999999999700, 106.0000000000000100 ) ) ;
#369 = ORIENTED_EDGE ( 'NONE', *, *, #392, .T. ) ;
#370 = LINE ( 'NONE', #252, #109 ) ;
#371 = LINE ( 'NONE', #287, #134 ) ;
#372 = CARTESIAN_POINT ( 'NONE',  ( 105.0000000000000300, -146.0000000000000000, 25.00000000000000700 ) ) ;
#373 = DIRECTION ( 'NONE',  ( 1.000000000000000000, 0.0000000000000000000, 0.0000000000000000000 ) ) ;
#374 = VERTEX_POINT ( 'NONE', #147 ) ;
#375 = EDGE_CURVE ( 'NONE', #232, #76, #207, .T. ) ;
#376 = ADVANCED_FACE ( 'NONE', ( #216 ), #191, .F. ) ;
#377 = MANIFOLD_SOLID_BREP ( 'Aufsatz-Linear austragen3', #212 ) ;
#378 = ORIENTED_EDGE ( 'NONE', *, *, #375, .F. ) ;
#379 = ORIENTED_EDGE ( 'NONE', *, *, #297, .T. ) ;
#380 = CARTESIAN_POINT ( 'NONE',  ( -105.0000000000000400, -160.9999999999999700, 106.0000000000000100 ) ) ;
#381 = COLOUR_RGB ( '',0.7529411764705882200, 0.7529411764705882200, 0.7529411764705882200 ) ;
#382 = VECTOR ( 'NONE', #189, 1000.000000000000100 ) ;
#383 = APPLICATION_PROTOCOL_DEFINITION ( 'draft international standard', 'automotive_design', 1998, #384 ) ;
#384 = APPLICATION_CONTEXT ( 'automotive_design' ) ;
#385 = ORIENTED_EDGE ( 'NONE', *, *, #17, .T. ) ;
#386 = AXIS2_PLACEMENT_3D ( 'NONE', #351, #359, #373 ) ;
#387 = EDGE_LOOP ( 'NONE', ( #378, #308, #20, #281 ) ) ;
#388 = PRODUCT_CONTEXT ( 'NONE', #137, 'mechanical' ) ;
#389 = DIRECTION ( 'NONE',  ( 1.000000000000000000, 0.0000000000000000000, 0.0000000000000000000 ) ) ;
#390 = CARTESIAN_POINT ( 'NONE',  ( 105.0000000000000400, -146.0000000000000000, 106.0000000000000100 ) ) ;
#391 = VECTOR ( 'NONE', #332, 1000.000000000000000 ) ;
#392 = EDGE_CURVE ( 'NONE', #70, #360, #201, .T. ) ;
#393 = DIRECTION ( 'NONE',  ( 0.0000000000000000000, 0.0000000000000000000, 1.000000000000000000 ) ) ;
#394 =( NAMED_UNIT ( * ) SI_UNIT ( $, .STERADIAN. ) SOLID_ANGLE_UNIT ( ) );
#395 =( NAMED_UNIT ( * ) PLANE_ANGLE_UNIT ( ) SI_UNIT ( $, .RADIAN. ) );
#396 =( LENGTH_UNIT ( ) NAMED_UNIT ( * ) SI_UNIT ( .MILLI., .METRE. ) );
#397 = FACE_OUTER_BOUND ( 'NONE', #288, .T. ) ;
#398 = SURFACE_STYLE_USAGE ( .BOTH. , #400 ) ;
#399 = ORIENTED_EDGE ( 'NONE', *, *, #410, .T. ) ;
#400 = SURFACE_SIDE_STYLE ('',( #26 ) ) ;
#401 = FILL_AREA_STYLE ('',( #402 ) ) ;
#402 = FILL_AREA_STYLE_COLOUR ( '', #97 ) ;
#403 = ADVANCED_FACE ( 'NONE', ( #146 ), #58, .T. ) ;
#404 = APPLICATION_PROTOCOL_DEFINITION ( 'draft international standard', 'automotive_design', 1998, #137 ) ;
#405 = VECTOR ( 'NONE', #337, 1000.000000000000000 ) ;
#406 = DIRECTION ( 'NONE',  ( 0.0000000000000000000, 0.0000000000000000000, -1.000000000000000000 ) ) ;
#407 = ORIENTED_EDGE ( 'NONE', *, *, #347, .F. ) ;
#408 = SURFACE_SIDE_STYLE ('',( #95 ) ) ;
#409 = CARTESIAN_POINT ( 'NONE',  ( 105.0000000000000400, -160.9999999999999700, 106.0000000000000100 ) ) ;
#410 = EDGE_CURVE ( 'NONE', #45, #105, #31, .T. ) ;
#411 = ADVANCED_FACE ( 'NONE', ( #87 ), #158, .T. ) ;
#412 = ORIENTED_EDGE ( 'NONE', *, *, #140, .F. ) ;
#413 = VECTOR ( 'NONE', #93, 1000.000000000000100 ) ;
#414 =( NAMED_UNIT ( * ) SI_UNIT ( $, .STERADIAN. ) SOLID_ANGLE_UNIT ( ) );
#415 = FACE_OUTER_BOUND ( 'NONE', #240, .T. ) ;
#416 = EDGE_CURVE ( 'NONE', #35, #111, #265, .T. ) ;
#417 = CARTESIAN_POINT ( 'NONE',  ( -130.0000000000000000, 155.8837752345538400, 92.00000000000000000 ) ) ;
#418 = EDGE_LOOP ( 'NONE', ( #309, #307 ) ) ;
#419 = EDGE_LOOP ( 'NONE', ( #18, #329 ) ) ;
#420 = CARTESIAN_POINT ( 'NONE',  ( -49.00000000000000000, 6.000769315822030900E-015, 0.0000000000000000000 ) ) ;
#421 = CARTESIAN_POINT ( 'NONE',  ( 130.0000000000000000, -146.0000000000000000, 131.0000000000000000 ) ) ;
#422 = DIRECTION ( 'NONE',  ( 1.000000000000000000, 0.0000000000000000000, 0.0000000000000000000 ) ) ;
#423 = EDGE_LOOP ( 'NONE', ( #186, #237, #200, #69 ) ) ;
#424 = FACE_OUTER_BOUND ( 'NONE', #96, .T. ) ;
ENDSEC;
END-ISO-10303-21;
