ISO-10303-21;
HEADER;
FILE_DESCRIPTION (( 'STEP AP214' ),
    '1' );
FILE_NAME ('AWV 15.STEP',
    '2018-05-12T14:42:36',
    ( 'CADnetwork' ),
    ( '' ),
    'SwSTEP 2.0',
    'SolidWorks 2014',
    '' );
FILE_SCHEMA (( 'AUTOMOTIVE_DESIGN' ));
ENDSEC;

DATA;
#1 = PLANE ( 'NONE',  #114 ) ;
#2 = PLANE ( 'NONE',  #32 ) ;
#3 = UNCERTAINTY_MEASURE_WITH_UNIT (LENGTH_MEASURE( 1.000000000000000100E-005 ), #368, 'distance_accuracy_value', 'NONE');
#4 = LINE ( 'NONE', #127, #227 ) ;
#5 = ADVANCED_FACE ( 'NONE', ( #350 ), #160, .T. ) ;
#6 = SURFACE_STYLE_USAGE ( .BOTH. , #417 ) ;
#7 = DIRECTION ( 'NONE',  ( 0.0000000000000000000, -0.9917581515711495500, 0.1281240367463367700 ) ) ;
#8 = STYLED_ITEM ( 'NONE', ( #109 ), #337 ) ;
#9 = VERTEX_POINT ( 'NONE', #235 ) ;
#10 = DIRECTION ( 'NONE',  ( -1.000000000000000000, 0.0000000000000000000, 1.713307136767216800E-016 ) ) ;
#11 = CARTESIAN_POINT ( 'NONE',  ( -105.0000000000000300, -160.9999999999999700, 25.00000000000000700 ) ) ;
#12 = PLANE ( 'NONE',  #112 ) ;
#13 = FACE_OUTER_BOUND ( 'NONE', #415, .T. ) ;
#14 = DIRECTION ( 'NONE',  ( -0.0000000000000000000, 1.000000000000000000, 0.0000000000000000000 ) ) ;
#15 = DIRECTION ( 'NONE',  ( 1.000000000000000000, 0.0000000000000000000, 0.0000000000000000000 ) ) ;
#16 = ORIENTED_EDGE ( 'NONE', *, *, #321, .T. ) ;
#17 = AXIS2_PLACEMENT_3D ( 'NONE', #110, #113, #120 ) ;
#18 = FACE_OUTER_BOUND ( 'NONE', #64, .T. ) ;
#19 = ADVANCED_FACE ( 'NONE', ( #349 ), #178, .F. ) ;
#20 = AXIS2_PLACEMENT_3D ( 'NONE', #43, #86, #92 ) ;
#21 = DIRECTION ( 'NONE',  ( 0.0000000000000000000, -0.5000000000000038900, 0.8660254037844364900 ) ) ;
#22 = ORIENTED_EDGE ( 'NONE', *, *, #348, .T. ) ;
#23 = DIRECTION ( 'NONE',  ( 1.000000000000000000, 0.0000000000000000000, -0.0000000000000000000 ) ) ;
#24 = CARTESIAN_POINT ( 'NONE',  ( -105.0000000000000300, -146.0000000000000000, 25.00000000000000700 ) ) ;
#25 = DIRECTION ( 'NONE',  ( -1.000000000000000000, -0.0000000000000000000, -0.0000000000000000000 ) ) ;
#26 = DIRECTION ( 'NONE',  ( 1.713307136767216800E-016, 0.0000000000000000000, -1.000000000000000000 ) ) ;
#27 = ORIENTED_EDGE ( 'NONE', *, *, #172, .T. ) ;
#28 = CARTESIAN_POINT ( 'NONE',  ( -105.0000000000000300, -160.9999999999999700, 25.00000000000000700 ) ) ;
#29 = CARTESIAN_POINT ( 'NONE',  ( 0.0000000000000000000, 0.0000000000000000000, 0.0000000000000000000 ) ) ;
#30 = DIRECTION ( 'NONE',  ( 0.0000000000000000000, 0.0000000000000000000, 1.000000000000000000 ) ) ;
#31 = CARTESIAN_POINT ( 'NONE',  ( 105.0000000000000400, -146.0000000000000000, 106.0000000000000100 ) ) ;
#32 = AXIS2_PLACEMENT_3D ( 'NONE', #403, #423, #369 ) ;
#33 = ORIENTED_EDGE ( 'NONE', *, *, #340, .T. ) ;
#34 = CARTESIAN_POINT ( 'NONE',  ( 105.0000000000000400, -160.9999999999999700, 106.0000000000000100 ) ) ;
#35 = DIRECTION ( 'NONE',  ( 0.0000000000000000000, -0.9917581515711495500, 0.1281240367463367700 ) ) ;
#36 = CARTESIAN_POINT ( 'NONE',  ( -74.00000000000000000, 9.062386313690413600E-015, 0.0000000000000000000 ) ) ;
#37 = ORIENTED_EDGE ( 'NONE', *, *, #237, .F. ) ;
#38 = PLANE ( 'NONE',  #99 ) ;
#39 = CARTESIAN_POINT ( 'NONE',  ( 130.0000000000000000, 155.8837752345538400, 92.00000000000000000 ) ) ;
#40 = VECTOR ( 'NONE', #61, 1000.000000000000000 ) ;
#41 = LINE ( 'NONE', #24, #40 ) ;
#42 = VECTOR ( 'NONE', #338, 1000.000000000000000 ) ;
#43 = CARTESIAN_POINT ( 'NONE',  ( -105.0000000000000400, -160.9999999999999700, 106.0000000000000100 ) ) ;
#44 = VERTEX_POINT ( 'NONE', #421 ) ;
#45 = CARTESIAN_POINT ( 'NONE',  ( 130.0000000000000000, 208.9999999999999700, 0.0000000000000000000 ) ) ;
#46 = ADVANCED_FACE ( 'NONE', ( #336 ), #1, .F. ) ;
#47 = PLANE ( 'NONE',  #17 ) ;
#48 = ORIENTED_EDGE ( 'NONE', *, *, #400, .T. ) ;
#49 = AXIS2_PLACEMENT_3D ( 'NONE', #188, #10, #53 ) ;
#50 = FACE_OUTER_BOUND ( 'NONE', #81, .T. ) ;
#51 = VECTOR ( 'NONE', #21, 1000.000000000000000 ) ;
#52 = EDGE_LOOP ( 'NONE', ( #128, #134 ) ) ;
#53 = DIRECTION ( 'NONE',  ( 1.713307136767216800E-016, 0.0000000000000000000, 1.000000000000000000 ) ) ;
#54 =( NAMED_UNIT ( * ) PLANE_ANGLE_UNIT ( ) SI_UNIT ( $, .RADIAN. ) );
#55 = AXIS2_PLACEMENT_3D ( 'NONE', #103, #68, #58 ) ;
#56 = ORIENTED_EDGE ( 'NONE', *, *, #346, .F. ) ;
#57 = CARTESIAN_POINT ( 'NONE',  ( -105.0000000000000300, -160.9999999999999700, 25.00000000000000700 ) ) ;
#58 = DIRECTION ( 'NONE',  ( 1.000000000000000000, 0.0000000000000000000, 0.0000000000000000000 ) ) ;
#59 =( NAMED_UNIT ( * ) SI_UNIT ( $, .STERADIAN. ) SOLID_ANGLE_UNIT ( ) );
#60 = LINE ( 'NONE', #404, #116 ) ;
#61 = DIRECTION ( 'NONE',  ( 1.000000000000000000, 0.0000000000000000000, 0.0000000000000000000 ) ) ;
#62 = VECTOR ( 'NONE', #7, 1000.000000000000100 ) ;
#63 = VERTEX_POINT ( 'NONE', #76 ) ;
#64 = EDGE_LOOP ( 'NONE', ( #106, #166, #390, #289 ) ) ;
#65 = AXIS2_PLACEMENT_3D ( 'NONE', #187, #176, #23 ) ;
#66 = DIRECTION ( 'NONE',  ( 0.0000000000000000000, -0.0000000000000000000, 1.000000000000000000 ) ) ;
#67 = LINE ( 'NONE', #163, #62 ) ;
#68 = DIRECTION ( 'NONE',  ( -0.0000000000000000000, -0.0000000000000000000, 1.000000000000000000 ) ) ;
#69 = ORIENTED_EDGE ( 'NONE', *, *, #344, .T. ) ;
#70 = PRODUCT ( 'AWV 15', 'AWV 15', '', ( #277 ) ) ;
#71 = DIRECTION ( 'NONE',  ( 1.713307136767216800E-016, -0.0000000000000000000, 1.000000000000000000 ) ) ;
#72 = AXIS2_PLACEMENT_3D ( 'NONE', #157, #342, #179 ) ;
#73 = DIRECTION ( 'NONE',  ( 0.0000000000000000000, -0.1281240367463367900, -0.9917581515711496600 ) ) ;
#74 = VERTEX_POINT ( 'NONE', #265 ) ;
#75 = VERTEX_POINT ( 'NONE', #259 ) ;
#76 = CARTESIAN_POINT ( 'NONE',  ( -130.0000000000000000, -146.0000000000000000, 0.0000000000000000000 ) ) ;
#77 = LINE ( 'NONE', #384, #51 ) ;
#78 = CARTESIAN_POINT ( 'NONE',  ( 74.00000000000000000, 0.0000000000000000000, 0.0000000000000000000 ) ) ;
#79 = PRODUCT_DEFINITION_CONTEXT ( 'detailed design', #245, 'design' ) ;
#80 = ORIENTED_EDGE ( 'NONE', *, *, #172, .F. ) ;
#81 = EDGE_LOOP ( 'NONE', ( #16, #254, #143, #149 ) ) ;
#82 = AXIS2_PLACEMENT_3D ( 'NONE', #184, #193, #196 ) ;
#83 = PLANE ( 'NONE',  #20 ) ;
#84 = EDGE_LOOP ( 'NONE', ( #409, #305, #324, #33 ) ) ;
#85 = VECTOR ( 'NONE', #351, 1000.000000000000000 ) ;
#86 = DIRECTION ( 'NONE',  ( 0.0000000000000000000, 0.0000000000000000000, -1.000000000000000000 ) ) ;
#87 = DIRECTION ( 'NONE',  ( -1.000000000000000000, 0.0000000000000000000, 0.0000000000000000000 ) ) ;
#88 = DIRECTION ( 'NONE',  ( 0.0000000000000000000, 0.0000000000000000000, -1.000000000000000000 ) ) ;
#89 = LINE ( 'NONE', #208, #96 ) ;
#90 = EDGE_LOOP ( 'NONE', ( #250, #154, #159, #271 ) ) ;
#91 = LINE ( 'NONE', #313, #117 ) ;
#92 = DIRECTION ( 'NONE',  ( -1.000000000000000000, 0.0000000000000000000, -0.0000000000000000000 ) ) ;
#93 = DIRECTION ( 'NONE',  ( -0.0000000000000000000, 1.000000000000000000, -0.0000000000000000000 ) ) ;
#94 = DIRECTION ( 'NONE',  ( -1.000000000000000000, -0.0000000000000000000, -0.0000000000000000000 ) ) ;
#95 = CARTESIAN_POINT ( 'NONE',  ( 130.0000000000000000, -146.0000000000000000, 131.0000000000000000 ) ) ;
#96 = VECTOR ( 'NONE', #26, 1000.000000000000000 ) ;
#97 = LINE ( 'NONE', #139, #85 ) ;
#98 = CARTESIAN_POINT ( 'NONE',  ( 130.0000000000000000, 208.9999999999999700, 0.0000000000000000000 ) ) ;
#99 = AXIS2_PLACEMENT_3D ( 'NONE', #95, #14, #66 ) ;
#100 = PLANE ( 'NONE',  #49 ) ;
#101 = ORIENTED_EDGE ( 'NONE', *, *, #345, .F. ) ;
#102 = AXIS2_PLACEMENT_3D ( 'NONE', #174, #297, #87 ) ;
#103 = CARTESIAN_POINT ( 'NONE',  ( 0.0000000000000000000, 0.0000000000000000000, -20.00000000000000000 ) ) ;
#104 = VECTOR ( 'NONE', #366, 1000.000000000000000 ) ;
#105 = ORIENTED_EDGE ( 'NONE', *, *, #231, .T. ) ;
#106 = ORIENTED_EDGE ( 'NONE', *, *, #222, .T. ) ;
#107 = LINE ( 'NONE', #309, #161 ) ;
#108 = FACE_OUTER_BOUND ( 'NONE', #424, .T. ) ;
#109 = PRESENTATION_STYLE_ASSIGNMENT (( #286 ) ) ;
#110 = CARTESIAN_POINT ( 'NONE',  ( 0.0000000000000000000, -160.9999999999999700, 0.0000000000000000000 ) ) ;
#111 = VERTEX_POINT ( 'NONE', #386 ) ;
#112 = AXIS2_PLACEMENT_3D ( 'NONE', #45, #155, #276 ) ;
#113 = DIRECTION ( 'NONE',  ( 0.0000000000000000000, -1.000000000000000000, 0.0000000000000000000 ) ) ;
#114 = AXIS2_PLACEMENT_3D ( 'NONE', #28, #156, #371 ) ;
#115 = EDGE_LOOP ( 'NONE', ( #293, #359 ) ) ;
#116 = VECTOR ( 'NONE', #71, 1000.000000000000000 ) ;
#117 = VECTOR ( 'NONE', #94, 1000.000000000000000 ) ;
#118 = AXIS2_PLACEMENT_3D ( 'NONE', #268, #73, #413 ) ;
#119 = EDGE_LOOP ( 'NONE', ( #292, #170, #298, #281 ) ) ;
#120 = DIRECTION ( 'NONE',  ( 0.0000000000000000000, -0.0000000000000000000, -1.000000000000000000 ) ) ;
#121 = CARTESIAN_POINT ( 'NONE',  ( 105.0000000000000400, -160.9999999999999700, 106.0000000000000100 ) ) ;
#122 = AXIS2_PLACEMENT_3D ( 'NONE', #273, #241, #269 ) ;
#123 = VERTEX_POINT ( 'NONE', #78 ) ;
#124 = DIRECTION ( 'NONE',  ( -1.000000000000000000, -0.0000000000000000000, -0.0000000000000000000 ) ) ;
#125 = VECTOR ( 'NONE', #35, 1000.000000000000100 ) ;
#126 = FACE_OUTER_BOUND ( 'NONE', #115, .T. ) ;
#127 = CARTESIAN_POINT ( 'NONE',  ( -105.0000000000000400, -146.0000000000000000, 106.0000000000000100 ) ) ;
#128 = ORIENTED_EDGE ( 'NONE', *, *, #340, .F. ) ;
#129 = CARTESIAN_POINT ( 'NONE',  ( 105.0000000000000300, -146.0000000000000000, 25.00000000000000700 ) ) ;
#130 = CARTESIAN_POINT ( 'NONE',  ( 105.0000000000000300, -160.9999999999999700, 25.00000000000000700 ) ) ;
#131 = ADVANCED_FACE ( 'NONE', ( #331 ), #12, .F. ) ;
#132 = DIRECTION ( 'NONE',  ( -0.0000000000000000000, -0.0000000000000000000, 1.000000000000000000 ) ) ;
#133 = APPLICATION_PROTOCOL_DEFINITION ( 'draft international standard', 'automotive_design', 1998, #245 ) ;
#134 = ORIENTED_EDGE ( 'NONE', *, *, #348, .F. ) ;
#135 = ADVANCED_BREP_SHAPE_REPRESENTATION ( 'AWV 15', ( #337, #319 ), #300 ) ;
#136 = DIRECTION ( 'NONE',  ( 1.713307136767216800E-016, -0.0000000000000000000, 1.000000000000000000 ) ) ;
#137 = VECTOR ( 'NONE', #25, 1000.000000000000000 ) ;
#138 = LINE ( 'NONE', #140, #125 ) ;
#139 = CARTESIAN_POINT ( 'NONE',  ( 130.0000000000000000, 208.9999999999999700, 0.0000000000000000000 ) ) ;
#140 = CARTESIAN_POINT ( 'NONE',  ( 130.0000000000000000, 155.8837752345538400, 92.00000000000000000 ) ) ;
#141 = ORIENTED_EDGE ( 'NONE', *, *, #175, .T. ) ;
#142 = EDGE_CURVE ( 'NONE', #214, #318, #320, .T. ) ;
#143 = ORIENTED_EDGE ( 'NONE', *, *, #145, .F. ) ;
#144 = DIRECTION ( 'NONE',  ( -0.0000000000000000000, 1.000000000000000000, -0.0000000000000000000 ) ) ;
#145 = EDGE_CURVE ( 'NONE', #327, #44, #295, .T. ) ;
#146 = ADVANCED_FACE ( 'NONE', ( #285, #334 ), #38, .F. ) ;
#147 = CIRCLE ( 'NONE', #294, 74.00000000000000000 ) ;
#148 = VERTEX_POINT ( 'NONE', #31 ) ;
#149 = ORIENTED_EDGE ( 'NONE', *, *, #153, .T. ) ;
#150 = CARTESIAN_POINT ( 'NONE',  ( 130.0000000000000000, -146.0000000000000000, 0.0000000000000000000 ) ) ;
#151 = EDGE_CURVE ( 'NONE', #214, #327, #263, .T. ) ;
#152 = CYLINDRICAL_SURFACE ( 'NONE', #55, 74.00000000000000000 ) ;
#153 = EDGE_CURVE ( 'NONE', #327, #148, #257, .T. ) ;
#154 = ORIENTED_EDGE ( 'NONE', *, *, #168, .F. ) ;
#155 = DIRECTION ( 'NONE',  ( 0.0000000000000000000, -0.8660254037844364900, -0.5000000000000037700 ) ) ;
#156 = DIRECTION ( 'NONE',  ( -0.0000000000000000000, 0.0000000000000000000, 1.000000000000000000 ) ) ;
#157 = CARTESIAN_POINT ( 'NONE',  ( -105.0000000000000400, -160.9999999999999700, 106.0000000000000100 ) ) ;
#158 = EDGE_CURVE ( 'NONE', #111, #9, #262, .T. ) ;
#159 = ORIENTED_EDGE ( 'NONE', *, *, #222, .F. ) ;
#160 = PLANE ( 'NONE',  #122 ) ;
#161 = VECTOR ( 'NONE', #132, 1000.000000000000000 ) ;
#162 = EDGE_CURVE ( 'NONE', #398, #214, #247, .T. ) ;
#163 = CARTESIAN_POINT ( 'NONE',  ( -130.0000000000000000, 155.8837752345538400, 92.00000000000000000 ) ) ;
#164 = ORIENTED_EDGE ( 'NONE', *, *, #260, .T. ) ;
#165 = PLANE ( 'NONE',  #65 ) ;
#166 = ORIENTED_EDGE ( 'NONE', *, *, #162, .T. ) ;
#167 = CARTESIAN_POINT ( 'NONE',  ( -105.0000000000000400, -160.9999999999999700, 106.0000000000000100 ) ) ;
#168 = EDGE_CURVE ( 'NONE', #398, #314, #242, .T. ) ;
#169 = DIRECTION ( 'NONE',  ( -0.0000000000000000000, 1.000000000000000000, -0.0000000000000000000 ) ) ;
#170 = ORIENTED_EDGE ( 'NONE', *, *, #326, .F. ) ;
#171 = ADVANCED_FACE ( 'NONE', ( #248 ), #306, .F. ) ;
#172 = EDGE_CURVE ( 'NONE', #299, #412, #206, .T. ) ;
#173 = VECTOR ( 'NONE', #419, 1000.000000000000000 ) ;
#174 = CARTESIAN_POINT ( 'NONE',  ( 0.0000000000000000000, 0.0000000000000000000, -20.00000000000000000 ) ) ;
#175 = EDGE_CURVE ( 'NONE', #407, #63, #211, .T. ) ;
#176 = DIRECTION ( 'NONE',  ( 0.0000000000000000000, 0.0000000000000000000, 1.000000000000000000 ) ) ;
#177 = CARTESIAN_POINT ( 'NONE',  ( -105.0000000000000400, -160.9999999999999700, 106.0000000000000100 ) ) ;
#178 = PLANE ( 'NONE',  #118 ) ;
#179 = DIRECTION ( 'NONE',  ( 1.713307136767216800E-016, 0.0000000000000000000, -1.000000000000000000 ) ) ;
#180 = LINE ( 'NONE', #275, #173 ) ;
#181 = LINE ( 'NONE', #150, #137 ) ;
#182 = ORIENTED_EDGE ( 'NONE', *, *, #231, .F. ) ;
#183 = ADVANCED_FACE ( 'NONE', ( #205, #197 ), #165, .F. ) ;
#184 = CARTESIAN_POINT ( 'NONE',  ( -130.0000000000000000, 0.0000000000000000000, 0.0000000000000000000 ) ) ;
#185 = LINE ( 'NONE', #389, #104 ) ;
#186 = PLANE ( 'NONE',  #82 ) ;
#187 = CARTESIAN_POINT ( 'NONE',  ( 130.0000000000000000, -146.0000000000000000, 0.0000000000000000000 ) ) ;
#188 = CARTESIAN_POINT ( 'NONE',  ( 105.0000000000000400, -160.9999999999999700, 106.0000000000000100 ) ) ;
#189 = CARTESIAN_POINT ( 'NONE',  ( 105.0000000000000300, -160.9999999999999700, 25.00000000000000700 ) ) ;
#190 = FACE_OUTER_BOUND ( 'NONE', #84, .T. ) ;
#191 = LINE ( 'NONE', #228, #210 ) ;
#192 = ORIENTED_EDGE ( 'NONE', *, *, #202, .F. ) ;
#193 = DIRECTION ( 'NONE',  ( 1.000000000000000000, -0.0000000000000000000, 0.0000000000000000000 ) ) ;
#194 = LINE ( 'NONE', #167, #332 ) ;
#195 = ORIENTED_EDGE ( 'NONE', *, *, #240, .F. ) ;
#196 = DIRECTION ( 'NONE',  ( 0.0000000000000000000, 0.0000000000000000000, -1.000000000000000000 ) ) ;
#197 = FACE_BOUND ( 'NONE', #52, .T. ) ;
#198 = VECTOR ( 'NONE', #88, 1000.000000000000000 ) ;
#199 = CIRCLE ( 'NONE', #290, 74.00000000000000000 ) ;
#200 = EDGE_LOOP ( 'NONE', ( #164, #195, #341, #27 ) ) ;
#201 = UNCERTAINTY_MEASURE_WITH_UNIT (LENGTH_MEASURE( 1.000000000000000100E-005 ), #391, 'distance_accuracy_value', 'NONE');
#202 = EDGE_CURVE ( 'NONE', #251, #75, #191, .T. ) ;
#203 = ORIENTED_EDGE ( 'NONE', *, *, #243, .T. ) ;
#204 = CARTESIAN_POINT ( 'NONE',  ( 105.0000000000000400, -160.9999999999999700, 106.0000000000000100 ) ) ;
#205 = FACE_OUTER_BOUND ( 'NONE', #377, .T. ) ;
#206 = LINE ( 'NONE', #381, #225 ) ;
#207 = FACE_OUTER_BOUND ( 'NONE', #266, .T. ) ;
#208 = CARTESIAN_POINT ( 'NONE',  ( -105.0000000000000400, -146.0000000000000000, 106.0000000000000100 ) ) ;
#209 = ORIENTED_EDGE ( 'NONE', *, *, #202, .T. ) ;
#210 = VECTOR ( 'NONE', #335, 1000.000000000000000 ) ;
#211 = LINE ( 'NONE', #329, #198 ) ;
#212 = ORIENTED_EDGE ( 'NONE', *, *, #326, .T. ) ;
#213 = CARTESIAN_POINT ( 'NONE',  ( 130.0000000000000000, -146.0000000000000000, 131.0000000000000000 ) ) ;
#214 = VERTEX_POINT ( 'NONE', #130 ) ;
#215 = DIRECTION ( 'NONE',  ( -1.000000000000000000, -0.0000000000000000000, -0.0000000000000000000 ) ) ;
#216 = LINE ( 'NONE', #213, #355 ) ;
#217 = ORIENTED_EDGE ( 'NONE', *, *, #162, .F. ) ;
#218 = CLOSED_SHELL ( 'NONE', ( #375, #183, #146, #131, #19, #5, #325, #171, #46, #236, #282, #302, #221, #239 ) ) ;
#219 = VECTOR ( 'NONE', #144, 1000.000000000000000 ) ;
#220 = ORIENTED_EDGE ( 'NONE', *, *, #142, .F. ) ;
#221 = ADVANCED_FACE ( 'NONE', ( #190 ), #152, .T. ) ;
#222 = EDGE_CURVE ( 'NONE', #44, #398, #180, .T. ) ;
#223 = FILL_AREA_STYLE_COLOUR ( '', #304 ) ;
#224 = ORIENTED_EDGE ( 'NONE', *, *, #344, .F. ) ;
#225 = VECTOR ( 'NONE', #395, 1000.000000000000000 ) ;
#226 = DIRECTION ( 'NONE',  ( -0.0000000000000000000, 1.000000000000000000, -0.0000000000000000000 ) ) ;
#227 = VECTOR ( 'NONE', #124, 1000.000000000000000 ) ;
#228 = CARTESIAN_POINT ( 'NONE',  ( 130.0000000000000000, -146.0000000000000000, 131.0000000000000000 ) ) ;
#229 = ORIENTED_EDGE ( 'NONE', *, *, #253, .F. ) ;
#230 = ORIENTED_EDGE ( 'NONE', *, *, #153, .F. ) ;
#231 = EDGE_CURVE ( 'NONE', #75, #63, #181, .T. ) ;
#232 = ORIENTED_EDGE ( 'NONE', *, *, #151, .F. ) ;
#233 = VECTOR ( 'NONE', #15, 1000.000000000000000 ) ;
#234 = EDGE_CURVE ( 'NONE', #267, #251, #138, .T. ) ;
#235 = CARTESIAN_POINT ( 'NONE',  ( -74.00000000000000000, 9.062386313690413600E-015, -20.00000000000000000 ) ) ;
#236 = ADVANCED_FACE ( 'NONE', ( #108 ), #100, .F. ) ;
#237 = EDGE_CURVE ( 'NONE', #111, #123, #107, .T. ) ;
#238 = ORIENTED_EDGE ( 'NONE', *, *, #321, .F. ) ;
#239 = ADVANCED_FACE ( 'NONE', ( #126 ), #2, .T. ) ;
#240 = EDGE_CURVE ( 'NONE', #267, #74, #91, .T. ) ;
#241 = DIRECTION ( 'NONE',  ( 1.000000000000000000, -0.0000000000000000000, 0.0000000000000000000 ) ) ;
#242 = LINE ( 'NONE', #11, #219 ) ;
#243 = EDGE_CURVE ( 'NONE', #299, #267, #97, .T. ) ;
#244 = CYLINDRICAL_SURFACE ( 'NONE', #301, 74.00000000000000000 ) ;
#245 = APPLICATION_CONTEXT ( 'automotive_design' ) ;
#246 = PRODUCT_DEFINITION_SHAPE ( 'NONE', 'NONE',  #303 ) ;
#247 = LINE ( 'NONE', #57, #233 ) ;
#248 = FACE_OUTER_BOUND ( 'NONE', #90, .T. ) ;
#249 = VECTOR ( 'NONE', #365, 1000.000000000000000 ) ;
#250 = ORIENTED_EDGE ( 'NONE', *, *, #253, .T. ) ;
#251 = VERTEX_POINT ( 'NONE', #362 ) ;
#252 = EDGE_CURVE ( 'NONE', #74, #407, #67, .T. ) ;
#253 = EDGE_CURVE ( 'NONE', #364, #314, #89, .T. ) ;
#254 = ORIENTED_EDGE ( 'NONE', *, *, #333, .F. ) ;
#255 = FILL_AREA_STYLE ('',( #223 ) ) ;
#256 = VECTOR ( 'NONE', #136, 1000.000000000000000 ) ;
#257 = LINE ( 'NONE', #34, #274 ) ;
#258 = SURFACE_SIDE_STYLE ('',( #363 ) ) ;
#259 = CARTESIAN_POINT ( 'NONE',  ( 130.0000000000000000, -146.0000000000000000, 0.0000000000000000000 ) ) ;
#260 = EDGE_CURVE ( 'NONE', #412, #74, #77, .T. ) ;
#261 = VERTEX_POINT ( 'NONE', #36 ) ;
#262 = CIRCLE ( 'NONE', #102, 74.00000000000000000 ) ;
#263 = LINE ( 'NONE', #121, #256 ) ;
#264 = PRESENTATION_STYLE_ASSIGNMENT (( #6 ) ) ;
#265 = CARTESIAN_POINT ( 'NONE',  ( -130.0000000000000000, 155.8837752345538400, 92.00000000000000000 ) ) ;
#266 = EDGE_LOOP ( 'NONE', ( #56, #48, #22, #37 ) ) ;
#267 = VERTEX_POINT ( 'NONE', #39 ) ;
#268 = CARTESIAN_POINT ( 'NONE',  ( 130.0000000000000000, 155.8837752345538400, 92.00000000000000000 ) ) ;
#269 = DIRECTION ( 'NONE',  ( 0.0000000000000000000, 0.0000000000000000000, -1.000000000000000000 ) ) ;
#270 = SURFACE_STYLE_FILL_AREA ( #414 ) ;
#271 = ORIENTED_EDGE ( 'NONE', *, *, #333, .T. ) ;
#272 = EDGE_CURVE ( 'NONE', #314, #318, #41, .T. ) ;
#273 = CARTESIAN_POINT ( 'NONE',  ( 130.0000000000000000, 0.0000000000000000000, 0.0000000000000000000 ) ) ;
#274 = VECTOR ( 'NONE', #169, 1000.000000000000000 ) ;
#275 = CARTESIAN_POINT ( 'NONE',  ( -105.0000000000000400, -160.9999999999999700, 106.0000000000000100 ) ) ;
#276 = DIRECTION ( 'NONE',  ( 0.0000000000000000000, 0.5000000000000037700, -0.8660254037844364900 ) ) ;
#277 = PRODUCT_CONTEXT ( 'NONE', #410, 'mechanical' ) ;
#278 = LINE ( 'NONE', #323, #42 ) ;
#279 = EDGE_CURVE ( 'NONE', #318, #148, #60, .T. ) ;
#280 = COLOUR_RGB ( '',0.7529411764705882200, 0.7529411764705882200, 0.7529411764705882200 ) ;
#281 = ORIENTED_EDGE ( 'NONE', *, *, #240, .T. ) ;
#282 = ADVANCED_FACE ( 'NONE', ( #50 ), #83, .F. ) ;
#283 = VECTOR ( 'NONE', #420, 1000.000000000000000 ) ;
#284 = MECHANICAL_DESIGN_GEOMETRIC_PRESENTATION_REPRESENTATION (  '', ( #8 ), #287 ) ;
#285 = FACE_OUTER_BOUND ( 'NONE', #376, .T. ) ;
#286 = SURFACE_STYLE_USAGE ( .BOTH. , #258 ) ;
#287 =( GEOMETRIC_REPRESENTATION_CONTEXT ( 3 ) GLOBAL_UNCERTAINTY_ASSIGNED_CONTEXT ( ( #328 ) ) GLOBAL_UNIT_ASSIGNED_CONTEXT ( ( #312, #315, #317 ) ) REPRESENTATION_CONTEXT ( 'NONE', 'WORKASPACE' ) );
#288 = ORIENTED_EDGE ( 'NONE', *, *, #272, .T. ) ;
#289 = ORIENTED_EDGE ( 'NONE', *, *, #145, .T. ) ;
#290 = AXIS2_PLACEMENT_3D ( 'NONE', #339, #353, #354 ) ;
#291 = AXIS2_PLACEMENT_3D ( 'NONE', #370, #372, #374 ) ;
#292 = ORIENTED_EDGE ( 'NONE', *, *, #252, .T. ) ;
#293 = ORIENTED_EDGE ( 'NONE', *, *, #158, .T. ) ;
#294 = AXIS2_PLACEMENT_3D ( 'NONE', #380, #385, #387 ) ;
#295 = LINE ( 'NONE', #177, #283 ) ;
#296 = LINE ( 'NONE', #360, #249 ) ;
#297 = DIRECTION ( 'NONE',  ( 0.0000000000000000000, 0.0000000000000000000, -1.000000000000000000 ) ) ;
#298 = ORIENTED_EDGE ( 'NONE', *, *, #234, .F. ) ;
#299 = VERTEX_POINT ( 'NONE', #98 ) ;
#300 =( GEOMETRIC_REPRESENTATION_CONTEXT ( 3 ) GLOBAL_UNCERTAINTY_ASSIGNED_CONTEXT ( ( #201 ) ) GLOBAL_UNIT_ASSIGNED_CONTEXT ( ( #391, #397, #402 ) ) REPRESENTATION_CONTEXT ( 'NONE', 'WORKASPACE' ) );
#301 = AXIS2_PLACEMENT_3D ( 'NONE', #388, #322, #367 ) ;
#302 = ADVANCED_FACE ( 'NONE', ( #18 ), #47, .T. ) ;
#303 = PRODUCT_DEFINITION ( 'UNKNOWN', '', #358, #79 ) ;
#304 = COLOUR_RGB ( '',0.7529411764705882200, 0.7529411764705882200, 0.7529411764705882200 ) ;
#305 = ORIENTED_EDGE ( 'NONE', *, *, #158, .F. ) ;
#306 = PLANE ( 'NONE',  #72 ) ;
#307 = STYLED_ITEM ( 'NONE', ( #264 ), #135 ) ;
#308 = PRESENTATION_LAYER_ASSIGNMENT (  '', '', ( #307 ) ) ;
#309 = CARTESIAN_POINT ( 'NONE',  ( 74.00000000000000000, 0.0000000000000000000, -20.00000000000000000 ) ) ;
#310 = MECHANICAL_DESIGN_GEOMETRIC_PRESENTATION_REPRESENTATION (  '', ( #307 ), #316 ) ;
#311 = VECTOR ( 'NONE', #93, 1000.000000000000000 ) ;
#312 =( LENGTH_UNIT ( ) NAMED_UNIT ( * ) SI_UNIT ( .MILLI., .METRE. ) );
#313 = CARTESIAN_POINT ( 'NONE',  ( 130.0000000000000000, 155.8837752345538400, 92.00000000000000000 ) ) ;
#314 = VERTEX_POINT ( 'NONE', #379 ) ;
#315 =( NAMED_UNIT ( * ) PLANE_ANGLE_UNIT ( ) SI_UNIT ( $, .RADIAN. ) );
#316 =( GEOMETRIC_REPRESENTATION_CONTEXT ( 3 ) GLOBAL_UNCERTAINTY_ASSIGNED_CONTEXT ( ( #3 ) ) GLOBAL_UNIT_ASSIGNED_CONTEXT ( ( #368, #54, #59 ) ) REPRESENTATION_CONTEXT ( 'NONE', 'WORKASPACE' ) );
#317 =( NAMED_UNIT ( * ) SI_UNIT ( $, .STERADIAN. ) SOLID_ANGLE_UNIT ( ) );
#318 = VERTEX_POINT ( 'NONE', #129 ) ;
#319 = AXIS2_PLACEMENT_3D ( 'NONE', #29, #30, #330 ) ;
#320 = LINE ( 'NONE', #189, #311 ) ;
#321 = EDGE_CURVE ( 'NONE', #148, #364, #4, .T. ) ;
#322 = DIRECTION ( 'NONE',  ( -0.0000000000000000000, -0.0000000000000000000, 1.000000000000000000 ) ) ;
#323 = CARTESIAN_POINT ( 'NONE',  ( -130.0000000000000000, -146.0000000000000000, 0.0000000000000000000 ) ) ;
#324 = ORIENTED_EDGE ( 'NONE', *, *, #237, .T. ) ;
#325 = ADVANCED_FACE ( 'NONE', ( #13 ), #186, .F. ) ;
#326 = EDGE_CURVE ( 'NONE', #251, #407, #216, .T. ) ;
#327 = VERTEX_POINT ( 'NONE', #204 ) ;
#328 = UNCERTAINTY_MEASURE_WITH_UNIT (LENGTH_MEASURE( 1.000000000000000100E-005 ), #312, 'distance_accuracy_value', 'NONE');
#329 = CARTESIAN_POINT ( 'NONE',  ( -130.0000000000000000, -146.0000000000000000, 131.0000000000000000 ) ) ;
#330 = DIRECTION ( 'NONE',  ( 1.000000000000000000, 0.0000000000000000000, 0.0000000000000000000 ) ) ;
#331 = FACE_OUTER_BOUND ( 'NONE', #200, .T. ) ;
#332 = VECTOR ( 'NONE', #226, 1000.000000000000000 ) ;
#333 = EDGE_CURVE ( 'NONE', #44, #364, #194, .T. ) ;
#334 = FACE_BOUND ( 'NONE', #399, .T. ) ;
#335 = DIRECTION ( 'NONE',  ( 0.0000000000000000000, 0.0000000000000000000, -1.000000000000000000 ) ) ;
#336 = FACE_OUTER_BOUND ( 'NONE', #422, .T. ) ;
#337 = MANIFOLD_SOLID_BREP ( 'Aufsatz-Linear austragen3', #218 ) ;
#338 = DIRECTION ( 'NONE',  ( 0.0000000000000000000, 1.000000000000000000, 0.0000000000000000000 ) ) ;
#339 = CARTESIAN_POINT ( 'NONE',  ( 0.0000000000000000000, 0.0000000000000000000, 0.0000000000000000000 ) ) ;
#340 = EDGE_CURVE ( 'NONE', #123, #261, #199, .T. ) ;
#341 = ORIENTED_EDGE ( 'NONE', *, *, #243, .F. ) ;
#342 = DIRECTION ( 'NONE',  ( 1.000000000000000000, 0.0000000000000000000, 1.713307136767216800E-016 ) ) ;
#343 = ORIENTED_EDGE ( 'NONE', *, *, #279, .T. ) ;
#344 = EDGE_CURVE ( 'NONE', #63, #412, #278, .T. ) ;
#345 = EDGE_CURVE ( 'NONE', #75, #299, #296, .T. ) ;
#346 = EDGE_CURVE ( 'NONE', #9, #111, #383, .T. ) ;
#347 = ORIENTED_EDGE ( 'NONE', *, *, #168, .T. ) ;
#348 = EDGE_CURVE ( 'NONE', #261, #123, #147, .T. ) ;
#349 = FACE_OUTER_BOUND ( 'NONE', #119, .T. ) ;
#350 = FACE_OUTER_BOUND ( 'NONE', #361, .T. ) ;
#351 = DIRECTION ( 'NONE',  ( 0.0000000000000000000, -0.5000000000000038900, 0.8660254037844364900 ) ) ;
#352 = PRODUCT_RELATED_PRODUCT_CATEGORY ( 'part', '', ( #70 ) ) ;
#353 = DIRECTION ( 'NONE',  ( -0.0000000000000000000, -0.0000000000000000000, -1.000000000000000000 ) ) ;
#354 = DIRECTION ( 'NONE',  ( 1.000000000000000000, 0.0000000000000000000, 0.0000000000000000000 ) ) ;
#355 = VECTOR ( 'NONE', #215, 1000.000000000000000 ) ;
#356 = ORIENTED_EDGE ( 'NONE', *, *, #272, .F. ) ;
#357 = ORIENTED_EDGE ( 'NONE', *, *, #142, .T. ) ;
#358 = PRODUCT_DEFINITION_FORMATION_WITH_SPECIFIED_SOURCE ( 'ANY', '', #70, .NOT_KNOWN. ) ;
#359 = ORIENTED_EDGE ( 'NONE', *, *, #346, .T. ) ;
#360 = CARTESIAN_POINT ( 'NONE',  ( 130.0000000000000000, -146.0000000000000000, 0.0000000000000000000 ) ) ;
#361 = EDGE_LOOP ( 'NONE', ( #209, #408, #203, #411 ) ) ;
#362 = CARTESIAN_POINT ( 'NONE',  ( 130.0000000000000000, -146.0000000000000000, 131.0000000000000000 ) ) ;
#363 = SURFACE_STYLE_FILL_AREA ( #255 ) ;
#364 = VERTEX_POINT ( 'NONE', #378 ) ;
#365 = DIRECTION ( 'NONE',  ( 0.0000000000000000000, 1.000000000000000000, 0.0000000000000000000 ) ) ;
#366 = DIRECTION ( 'NONE',  ( -0.0000000000000000000, -0.0000000000000000000, 1.000000000000000000 ) ) ;
#367 = DIRECTION ( 'NONE',  ( 1.000000000000000000, 0.0000000000000000000, 0.0000000000000000000 ) ) ;
#368 =( LENGTH_UNIT ( ) NAMED_UNIT ( * ) SI_UNIT ( .MILLI., .METRE. ) );
#369 = DIRECTION ( 'NONE',  ( -1.000000000000000000, 0.0000000000000000000, -0.0000000000000000000 ) ) ;
#370 = CARTESIAN_POINT ( 'NONE',  ( 0.0000000000000000000, 0.0000000000000000000, -20.00000000000000000 ) ) ;
#371 = DIRECTION ( 'NONE',  ( 1.000000000000000000, 0.0000000000000000000, 0.0000000000000000000 ) ) ;
#372 = DIRECTION ( 'NONE',  ( 0.0000000000000000000, 0.0000000000000000000, -1.000000000000000000 ) ) ;
#373 = ORIENTED_EDGE ( 'NONE', *, *, #260, .F. ) ;
#374 = DIRECTION ( 'NONE',  ( -1.000000000000000000, 0.0000000000000000000, 0.0000000000000000000 ) ) ;
#375 = ADVANCED_FACE ( 'NONE', ( #207 ), #244, .T. ) ;
#376 = EDGE_LOOP ( 'NONE', ( #141, #182, #192, #212 ) ) ;
#377 = EDGE_LOOP ( 'NONE', ( #69, #80, #101, #105 ) ) ;
#378 = CARTESIAN_POINT ( 'NONE',  ( -105.0000000000000400, -146.0000000000000000, 106.0000000000000100 ) ) ;
#379 = CARTESIAN_POINT ( 'NONE',  ( -105.0000000000000100, -146.0000000000000000, 25.00000000000000700 ) ) ;
#380 = CARTESIAN_POINT ( 'NONE',  ( 0.0000000000000000000, 0.0000000000000000000, 0.0000000000000000000 ) ) ;
#381 = CARTESIAN_POINT ( 'NONE',  ( 130.0000000000000000, 208.9999999999999700, 0.0000000000000000000 ) ) ;
#382 = PRESENTATION_LAYER_ASSIGNMENT (  '', '', ( #8 ) ) ;
#383 = CIRCLE ( 'NONE', #291, 74.00000000000000000 ) ;
#384 = CARTESIAN_POINT ( 'NONE',  ( -130.0000000000000000, 208.9999999999999700, 0.0000000000000000000 ) ) ;
#385 = DIRECTION ( 'NONE',  ( -0.0000000000000000000, -0.0000000000000000000, -1.000000000000000000 ) ) ;
#386 = CARTESIAN_POINT ( 'NONE',  ( 74.00000000000000000, 0.0000000000000000000, -20.00000000000000000 ) ) ;
#387 = DIRECTION ( 'NONE',  ( 1.000000000000000000, 0.0000000000000000000, 0.0000000000000000000 ) ) ;
#388 = CARTESIAN_POINT ( 'NONE',  ( 0.0000000000000000000, 0.0000000000000000000, -20.00000000000000000 ) ) ;
#389 = CARTESIAN_POINT ( 'NONE',  ( -74.00000000000000000, 9.062386313690413600E-015, -20.00000000000000000 ) ) ;
#390 = ORIENTED_EDGE ( 'NONE', *, *, #151, .T. ) ;
#391 =( LENGTH_UNIT ( ) NAMED_UNIT ( * ) SI_UNIT ( .MILLI., .METRE. ) );
#392 = CARTESIAN_POINT ( 'NONE',  ( -105.0000000000000300, -160.9999999999999700, 25.00000000000000700 ) ) ;
#393 = CARTESIAN_POINT ( 'NONE',  ( -130.0000000000000000, 208.9999999999999700, 0.0000000000000000000 ) ) ;
#394 = FILL_AREA_STYLE_COLOUR ( '', #280 ) ;
#395 = DIRECTION ( 'NONE',  ( -1.000000000000000000, -0.0000000000000000000, -0.0000000000000000000 ) ) ;
#396 = CARTESIAN_POINT ( 'NONE',  ( -130.0000000000000000, -146.0000000000000000, 131.0000000000000000 ) ) ;
#397 =( NAMED_UNIT ( * ) PLANE_ANGLE_UNIT ( ) SI_UNIT ( $, .RADIAN. ) );
#398 = VERTEX_POINT ( 'NONE', #392 ) ;
#399 = EDGE_LOOP ( 'NONE', ( #229, #238, #418, #356 ) ) ;
#400 = EDGE_CURVE ( 'NONE', #9, #261, #185, .T. ) ;
#401 = ORIENTED_EDGE ( 'NONE', *, *, #252, .F. ) ;
#402 =( NAMED_UNIT ( * ) SI_UNIT ( $, .STERADIAN. ) SOLID_ANGLE_UNIT ( ) );
#403 = CARTESIAN_POINT ( 'NONE',  ( 0.0000000000000000000, 0.0000000000000000000, -20.00000000000000000 ) ) ;
#404 = CARTESIAN_POINT ( 'NONE',  ( 105.0000000000000400, -146.0000000000000000, 106.0000000000000100 ) ) ;
#405 = ORIENTED_EDGE ( 'NONE', *, *, #175, .F. ) ;
#406 = APPLICATION_PROTOCOL_DEFINITION ( 'draft international standard', 'automotive_design', 1998, #410 ) ;
#407 = VERTEX_POINT ( 'NONE', #396 ) ;
#408 = ORIENTED_EDGE ( 'NONE', *, *, #345, .T. ) ;
#409 = ORIENTED_EDGE ( 'NONE', *, *, #400, .F. ) ;
#410 = APPLICATION_CONTEXT ( 'automotive_design' ) ;
#411 = ORIENTED_EDGE ( 'NONE', *, *, #234, .T. ) ;
#412 = VERTEX_POINT ( 'NONE', #393 ) ;
#413 = DIRECTION ( 'NONE',  ( 0.0000000000000000000, 0.9917581515711495500, -0.1281240367463367700 ) ) ;
#414 = FILL_AREA_STYLE ('',( #394 ) ) ;
#415 = EDGE_LOOP ( 'NONE', ( #405, #401, #373, #224 ) ) ;
#416 = SHAPE_DEFINITION_REPRESENTATION ( #246, #135 ) ;
#417 = SURFACE_SIDE_STYLE ('',( #270 ) ) ;
#418 = ORIENTED_EDGE ( 'NONE', *, *, #279, .F. ) ;
#419 = DIRECTION ( 'NONE',  ( 1.713307136767216800E-016, 0.0000000000000000000, -1.000000000000000000 ) ) ;
#420 = DIRECTION ( 'NONE',  ( -1.000000000000000000, -0.0000000000000000000, -0.0000000000000000000 ) ) ;
#421 = CARTESIAN_POINT ( 'NONE',  ( -105.0000000000000400, -160.9999999999999700, 106.0000000000000100 ) ) ;
#422 = EDGE_LOOP ( 'NONE', ( #288, #220, #217, #347 ) ) ;
#423 = DIRECTION ( 'NONE',  ( 0.0000000000000000000, 0.0000000000000000000, -1.000000000000000000 ) ) ;
#424 = EDGE_LOOP ( 'NONE', ( #343, #230, #232, #357 ) ) ;
ENDSEC;
END-ISO-10303-21;
