ISO-10303-21;
HEADER;
FILE_DESCRIPTION (( 'STEP AP203' ),
    '1' );
FILE_NAME ('5SU1049_ Anti vibration mount.STEP',
    '2022-03-10T13:58:04',
    ( '' ),
    ( '' ),
    'SwSTEP 2.0',
    'SolidWorks 2018',
    '' );
FILE_SCHEMA (( 'CONFIG_CONTROL_DESIGN' ));
ENDSEC;

DATA;
#1 = ORIENTED_EDGE ( 'NONE', *, *, #101, .T. ) ;
#2 = EDGE_LOOP ( 'NONE', ( #221, #181 ) ) ;
#3 = DIRECTION ( 'NONE',  ( 1.000000000000000000, 0.000000000000000000, -0.000000000000000000 ) ) ;
#4 = EDGE_CURVE ( 'NONE', #350, #128, #67, .T. ) ;
#5 = APPLICATION_PROTOCOL_DEFINITION ( 'international standard', 'config_control_design', 1994, #282 ) ;
#6 = AXIS2_PLACEMENT_3D ( 'NONE', #104, #345, #11 ) ;
#7 = CYLINDRICAL_SURFACE ( 'NONE', #332, 10.00000000000000000 ) ;
#8 = VECTOR ( 'NONE', #153, 1000.000000000000000 ) ;
#9 = DIRECTION ( 'NONE',  ( -0.000000000000000000, -0.000000000000000000, -1.000000000000000000 ) ) ;
#10 = EDGE_CURVE ( 'NONE', #257, #350, #82, .T. ) ;
#11 = DIRECTION ( 'NONE',  ( -1.000000000000000000, 0.000000000000000000, 0.000000000000000000 ) ) ;
#12 = CIRCLE ( 'NONE', #348, 3.000000000000000444 ) ;
#13 = CC_DESIGN_PERSON_AND_ORGANIZATION_ASSIGNMENT ( #226, #133, ( #239 ) ) ;
#14 = DIRECTION ( 'NONE',  ( 0.000000000000000000, 0.000000000000000000, 1.000000000000000000 ) ) ;
#15 = EDGE_CURVE ( 'NONE', #257, #165, #140, .T. ) ;
#16 = EDGE_LOOP ( 'NONE', ( #237, #194, #295, #177 ) ) ;
#17 = DIRECTION ( 'NONE',  ( -0.000000000000000000, -0.000000000000000000, -1.000000000000000000 ) ) ;
#18 = AXIS2_PLACEMENT_3D ( 'NONE', #124, #182, #27 ) ;
#19 = CALENDAR_DATE ( 2022, 10, 3 ) ;
#20 = VECTOR ( 'NONE', #146, 1000.000000000000000 ) ;
#21 = EDGE_LOOP ( 'NONE', ( #353, #99, #213, #285 ) ) ;
#22 = AXIS2_PLACEMENT_3D ( 'NONE', #214, #28, #85 ) ;
#23 = DATE_AND_TIME ( #112, #136 ) ;
#24 = DIRECTION ( 'NONE',  ( 0.000000000000000000, 0.000000000000000000, -1.000000000000000000 ) ) ;
#25 = VERTEX_POINT ( 'NONE', #197 ) ;
#26 = AXIS2_PLACEMENT_3D ( 'NONE', #71, #223, #161 ) ;
#27 = DIRECTION ( 'NONE',  ( -1.000000000000000000, 0.000000000000000000, 0.000000000000000000 ) ) ;
#28 = DIRECTION ( 'NONE',  ( 0.000000000000000000, 0.000000000000000000, -1.000000000000000000 ) ) ;
#29 = SHAPE_DEFINITION_REPRESENTATION ( #275, #44 ) ;
#30 = FACE_OUTER_BOUND ( 'NONE', #54, .T. ) ;
#31 = PERSON ( 'NON SPECIFICATO', 'NON SPECIFICATO', 'NON SPECIFICATO', ('NON SPECIFICATO'), ('NON SPECIFICATO'), ('NON SPECIFICATO') ) ;
#32 = ADVANCED_FACE ( 'NONE', ( #56 ), #127, .T. ) ;
#33 = CARTESIAN_POINT ( 'NONE',  ( -3.000000000000000444, 0.000000000000000000, 15.00000000000000000 ) ) ;
#34 = CARTESIAN_POINT ( 'NONE',  ( -10.00000000000000000, 0.000000000000000000, 15.00000000000000000 ) ) ;
#35 = CC_DESIGN_DATE_AND_TIME_ASSIGNMENT ( #288, #40, ( #342 ) ) ;
#36 = APPLICATION_PROTOCOL_DEFINITION ( 'international standard', 'config_control_design', 1994, #68 ) ;
#37 = CIRCLE ( 'NONE', #26, 10.00000000000000000 ) ;
#38 = ORIENTED_EDGE ( 'NONE', *, *, #149, .F. ) ;
#39 = CARTESIAN_POINT ( 'NONE',  ( 0.000000000000000000, 0.000000000000000000, 0.000000000000000000 ) ) ;
#40 = DATE_TIME_ROLE ( 'classification_date' ) ;
#41 = AXIS2_PLACEMENT_3D ( 'NONE', #318, #14, #351 ) ;
#42 = CIRCLE ( 'NONE', #198, 3.000000000000000444 ) ;
#43 = CIRCLE ( 'NONE', #41, 3.000000000000000444 ) ;
#44 = ADVANCED_BREP_SHAPE_REPRESENTATION ( '5SU1049_ Anti vibration mount', ( #254, #65 ), #365 ) ;
#45 = AXIS2_PLACEMENT_3D ( 'NONE', #309, #66, #158 ) ;
#46 = CARTESIAN_POINT ( 'NONE',  ( 0.000000000000000000, 0.000000000000000000, 15.00000000000000000 ) ) ;
#47 = PERSON_AND_ORGANIZATION_ROLE ( 'classification_officer' ) ;
#48 = CARTESIAN_POINT ( 'NONE',  ( 0.000000000000000000, 0.000000000000000000, 8.000000000000000000 ) ) ;
#49 = AXIS2_PLACEMENT_3D ( 'NONE', #48, #17, #144 ) ;
#50 = DIRECTION ( 'NONE',  ( 1.000000000000000000, 0.000000000000000000, 0.000000000000000000 ) ) ;
#51 = COORDINATED_UNIVERSAL_TIME_OFFSET ( 1, 0, .AHEAD. ) ;
#52 = ORIENTED_EDGE ( 'NONE', *, *, #75, .T. ) ;
#53 = DIRECTION ( 'NONE',  ( 0.000000000000000000, 0.000000000000000000, -1.000000000000000000 ) ) ;
#54 = EDGE_LOOP ( 'NONE', ( #362, #131, #141, #62 ) ) ;
#55 = DESIGN_CONTEXT ( 'detailed design', #68, 'design' ) ;
#56 = FACE_OUTER_BOUND ( 'NONE', #366, .T. ) ;
#57 = ORIENTED_EDGE ( 'NONE', *, *, #374, .T. ) ;
#58 = EDGE_CURVE ( 'NONE', #235, #117, #76, .T. ) ;
#59 = DIRECTION ( 'NONE',  ( -1.000000000000000000, 0.000000000000000000, 0.000000000000000000 ) ) ;
#60 = CARTESIAN_POINT ( 'NONE',  ( -3.000000000000000444, 0.000000000000000000, 8.000000000000000000 ) ) ;
#61 = LOCAL_TIME ( 14, 58, 4.000000000000000000, #376 ) ;
#62 = ORIENTED_EDGE ( 'NONE', *, *, #125, .T. ) ;
#63 = AXIS2_PLACEMENT_3D ( 'NONE', #80, #171, #50 ) ;
#64 = CARTESIAN_POINT ( 'NONE',  ( 10.00000000000000000, 1.224646799147353256E-15, 15.00000000000000000 ) ) ;
#65 = AXIS2_PLACEMENT_3D ( 'NONE', #159, #343, #367 ) ;
#66 = DIRECTION ( 'NONE',  ( -0.000000000000000000, -0.000000000000000000, -1.000000000000000000 ) ) ;
#67 = LINE ( 'NONE', #34, #8 ) ;
#68 = APPLICATION_CONTEXT ( 'configuration controlled 3d designs of mechanical parts and assemblies' ) ;
#69 = DIRECTION ( 'NONE',  ( -0.000000000000000000, -0.000000000000000000, -1.000000000000000000 ) ) ;
#70 = ADVANCED_FACE ( 'NONE', ( #30 ), #152, .F. ) ;
#71 = CARTESIAN_POINT ( 'NONE',  ( 0.000000000000000000, 0.000000000000000000, 0.000000000000000000 ) ) ;
#72 = AXIS2_PLACEMENT_3D ( 'NONE', #167, #323, #236 ) ;
#73 = LINE ( 'NONE', #364, #340 ) ;
#74 = CYLINDRICAL_SURFACE ( 'NONE', #49, 3.000000000000000444 ) ;
#75 = EDGE_CURVE ( 'NONE', #334, #235, #266, .T. ) ;
#76 = LINE ( 'NONE', #370, #379 ) ;
#77 = ORIENTED_EDGE ( 'NONE', *, *, #58, .F. ) ;
#78 = DIRECTION ( 'NONE',  ( -1.000000000000000000, 0.000000000000000000, 0.000000000000000000 ) ) ;
#79 = EDGE_CURVE ( 'NONE', #117, #347, #230, .T. ) ;
#80 = CARTESIAN_POINT ( 'NONE',  ( 0.000000000000000000, 0.000000000000000000, 0.000000000000000000 ) ) ;
#81 = CARTESIAN_POINT ( 'NONE',  ( 0.000000000000000000, 0.000000000000000000, 29.49999999999999289 ) ) ;
#82 = CIRCLE ( 'NONE', #173, 10.00000000000000000 ) ;
#83 = EDGE_LOOP ( 'NONE', ( #354, #172 ) ) ;
#84 = EDGE_CURVE ( 'NONE', #350, #257, #220, .T. ) ;
#85 = DIRECTION ( 'NONE',  ( -1.000000000000000000, 0.000000000000000000, -0.000000000000000000 ) ) ;
#86 = CIRCLE ( 'NONE', #134, 3.000000000000000444 ) ;
#87 = ORIENTED_EDGE ( 'NONE', *, *, #374, .F. ) ;
#88 = AXIS2_PLACEMENT_3D ( 'NONE', #274, #381, #90 ) ;
#89 = FACE_BOUND ( 'NONE', #243, .T. ) ;
#90 = DIRECTION ( 'NONE',  ( 1.000000000000000000, 0.000000000000000000, 0.000000000000000000 ) ) ;
#91 = FACE_BOUND ( 'NONE', #92, .T. ) ;
#92 = EDGE_LOOP ( 'NONE', ( #304, #341 ) ) ;
#93 = ADVANCED_FACE ( 'NONE', ( #361 ), #74, .F. ) ;
#94 = DIRECTION ( 'NONE',  ( 0.000000000000000000, 0.000000000000000000, -1.000000000000000000 ) ) ;
#95 = CARTESIAN_POINT ( 'NONE',  ( 2.499999999999998668, 3.367778697655220519E-16, 30.00000000000000000 ) ) ;
#96 = CC_DESIGN_PERSON_AND_ORGANIZATION_ASSIGNMENT ( #216, #244, ( #280 ) ) ;
#97 = APPROVAL_ROLE ( '' ) ;
#98 = CIRCLE ( 'NONE', #105, 2.499999999999998668 ) ;
#99 = ORIENTED_EDGE ( 'NONE', *, *, #15, .T. ) ;
#100 = DIRECTION ( 'NONE',  ( 0.000000000000000000, 0.000000000000000000, 1.000000000000000000 ) ) ;
#101 = EDGE_CURVE ( 'NONE', #347, #117, #43, .T. ) ;
#102 = DIRECTION ( 'NONE',  ( -0.000000000000000000, -0.000000000000000000, -1.000000000000000000 ) ) ;
#103 = DIRECTION ( 'NONE',  ( -1.000000000000000000, 0.000000000000000000, 0.000000000000000000 ) ) ;
#104 = CARTESIAN_POINT ( 'NONE',  ( 0.000000000000000000, 0.000000000000000000, 30.00000000000000000 ) ) ;
#105 = AXIS2_PLACEMENT_3D ( 'NONE', #324, #328, #178 ) ;
#106 = LOCAL_TIME ( 14, 58, 4.000000000000000000, #382 ) ;
#107 = CIRCLE ( 'NONE', #310, 3.000000000000000444 ) ;
#108 = ORIENTED_EDGE ( 'NONE', *, *, #111, .F. ) ;
#109 = CC_DESIGN_PERSON_AND_ORGANIZATION_ASSIGNMENT ( #122, #245, ( #383 ) ) ;
#110 = DIRECTION ( 'NONE',  ( 0.7071067811865435759, 8.659560562354886020E-17, -0.7071067811865515695 ) ) ;
#111 = EDGE_CURVE ( 'NONE', #165, #128, #272, .T. ) ;
#112 = CALENDAR_DATE ( 2022, 10, 3 ) ;
#113 = ORIENTED_EDGE ( 'NONE', *, *, #344, .T. ) ;
#114 = AXIS2_PLACEMENT_3D ( 'NONE', #39, #94, #281 ) ;
#115 = EDGE_CURVE ( 'NONE', #206, #347, #227, .T. ) ;
#116 = CARTESIAN_POINT ( 'NONE',  ( -3.000000000000000444, 0.000000000000000000, 29.49999999999999289 ) ) ;
#117 = VERTEX_POINT ( 'NONE', #232 ) ;
#118 = ORIENTED_EDGE ( 'NONE', *, *, #115, .T. ) ;
#119 = CARTESIAN_POINT ( 'NONE',  ( 3.000000000000000444, 3.673940397442060361E-16, 8.000000000000000000 ) ) ;
#120 = CARTESIAN_POINT ( 'NONE',  ( 0.000000000000000000, 0.000000000000000000, 0.000000000000000000 ) ) ;
#121 = CARTESIAN_POINT ( 'NONE',  ( 0.000000000000000000, 0.000000000000000000, 15.00000000000000000 ) ) ;
#122 = PERSON_AND_ORGANIZATION ( #31, #322 ) ;
#123 = CARTESIAN_POINT ( 'NONE',  ( -2.499999999999998668, 0.000000000000000000, 30.00000000000000000 ) ) ;
#124 = CARTESIAN_POINT ( 'NONE',  ( 0.000000000000000000, 0.000000000000000000, 30.00000000000000000 ) ) ;
#125 = EDGE_CURVE ( 'NONE', #25, #291, #107, .T. ) ;
#126 = CIRCLE ( 'NONE', #114, 3.000000000000000444 ) ;
#127 = CONICAL_SURFACE ( 'NONE', #6, 2.499999999999998668, 0.7853981633974426169 ) ;
#128 = VERTEX_POINT ( 'NONE', #143 ) ;
#129 = ADVANCED_FACE ( 'NONE', ( #303 ), #233, .T. ) ;
#130 = AXIS2_PLACEMENT_3D ( 'NONE', #355, #297, #148 ) ;
#131 = ORIENTED_EDGE ( 'NONE', *, *, #312, .F. ) ;
#132 = EDGE_LOOP ( 'NONE', ( #200, #331, #256, #57 ) ) ;
#133 = PERSON_AND_ORGANIZATION_ROLE ( 'design_supplier' ) ;
#134 = AXIS2_PLACEMENT_3D ( 'NONE', #183, #24, #240 ) ;
#135 = MECHANICAL_CONTEXT ( 'NONE', #282, 'mechanical' ) ;
#136 = LOCAL_TIME ( 14, 58, 4.000000000000000000, #201 ) ;
#137 = ORIENTED_EDGE ( 'NONE', *, *, #263, .T. ) ;
#138 = DIRECTION ( 'NONE',  ( 0.000000000000000000, 0.000000000000000000, 1.000000000000000000 ) ) ;
#139 = CALENDAR_DATE ( 2022, 10, 3 ) ;
#140 = LINE ( 'NONE', #195, #242 ) ;
#141 = ORIENTED_EDGE ( 'NONE', *, *, #293, .T. ) ;
#142 = AXIS2_PLACEMENT_3D ( 'NONE', #121, #238, #294 ) ;
#143 = CARTESIAN_POINT ( 'NONE',  ( -10.00000000000000000, 0.000000000000000000, 0.000000000000000000 ) ) ;
#144 = DIRECTION ( 'NONE',  ( -1.000000000000000000, 0.000000000000000000, 0.000000000000000000 ) ) ;
#145 = LINE ( 'NONE', #60, #151 ) ;
#146 = DIRECTION ( 'NONE',  ( -0.7071067811865435759, 0.000000000000000000, -0.7071067811865515695 ) ) ;
#147 = CC_DESIGN_APPROVAL ( #150, ( #239 ) ) ;
#148 = DIRECTION ( 'NONE',  ( 1.000000000000000000, 0.000000000000000000, -0.000000000000000000 ) ) ;
#149 = EDGE_CURVE ( 'NONE', #273, #206, #185, .T. ) ;
#150 = APPROVAL ( #279, 'NON SPECIFICATO' ) ;
#151 = VECTOR ( 'NONE', #9, 1000.000000000000000 ) ;
#152 = CYLINDRICAL_SURFACE ( 'NONE', #160, 3.000000000000000444 ) ;
#153 = DIRECTION ( 'NONE',  ( -0.000000000000000000, -0.000000000000000000, -1.000000000000000000 ) ) ;
#154 = ADVANCED_FACE ( 'NONE', ( #91, #176 ), #210, .T. ) ;
#155 = DIRECTION ( 'NONE',  ( -0.000000000000000000, -0.000000000000000000, -1.000000000000000000 ) ) ;
#156 = ORIENTED_EDGE ( 'NONE', *, *, #263, .F. ) ;
#157 = VERTEX_POINT ( 'NONE', #119 ) ;
#158 = DIRECTION ( 'NONE',  ( -1.000000000000000000, 0.000000000000000000, 0.000000000000000000 ) ) ;
#159 = CARTESIAN_POINT ( 'NONE',  ( 0.000000000000000000, 0.000000000000000000, 0.000000000000000000 ) ) ;
#160 = AXIS2_PLACEMENT_3D ( 'NONE', #228, #253, #78 ) ;
#161 = DIRECTION ( 'NONE',  ( 1.000000000000000000, 0.000000000000000000, 0.000000000000000000 ) ) ;
#162 = CARTESIAN_POINT ( 'NONE',  ( 0.000000000000000000, 0.000000000000000000, 0.000000000000000000 ) ) ;
#163 = ORIENTED_EDGE ( 'NONE', *, *, #344, .F. ) ;
#164 = SECURITY_CLASSIFICATION_LEVEL ( 'unclassified' ) ;
#165 = VERTEX_POINT ( 'NONE', #264 ) ;
#166 = CC_DESIGN_PERSON_AND_ORGANIZATION_ASSIGNMENT ( #180, #306, ( #239 ) ) ;
#167 = CARTESIAN_POINT ( 'NONE',  ( 0.000000000000000000, 0.000000000000000000, 15.00000000000000000 ) ) ;
#168 = EDGE_CURVE ( 'NONE', #334, #273, #98, .T. ) ;
#169 = LOCAL_TIME ( 14, 58, 4.000000000000000000, #313 ) ;
#170 = FACE_OUTER_BOUND ( 'NONE', #132, .T. ) ;
#171 = DIRECTION ( 'NONE',  ( 0.000000000000000000, 0.000000000000000000, 1.000000000000000000 ) ) ;
#172 = ORIENTED_EDGE ( 'NONE', *, *, #192, .T. ) ;
#173 = AXIS2_PLACEMENT_3D ( 'NONE', #315, #138, #250 ) ;
#174 = DIRECTION ( 'NONE',  ( -1.000000000000000000, 0.000000000000000000, 0.000000000000000000 ) ) ;
#175 = FACE_OUTER_BOUND ( 'NONE', #21, .T. ) ;
#176 = FACE_OUTER_BOUND ( 'NONE', #231, .T. ) ;
#177 = ORIENTED_EDGE ( 'NONE', *, *, #204, .F. ) ;
#178 = DIRECTION ( 'NONE',  ( 1.000000000000000000, 0.000000000000000000, 0.000000000000000000 ) ) ;
#179 = APPROVAL ( #218, 'NON SPECIFICATO' ) ;
#180 = PERSON_AND_ORGANIZATION ( #31, #322 ) ;
#181 = ORIENTED_EDGE ( 'NONE', *, *, #168, .T. ) ;
#182 = DIRECTION ( 'NONE',  ( -0.000000000000000000, -0.000000000000000000, -1.000000000000000000 ) ) ;
#183 = CARTESIAN_POINT ( 'NONE',  ( 0.000000000000000000, 0.000000000000000000, 29.49999999999999289 ) ) ;
#184 = APPROVAL_PERSON_ORGANIZATION ( #265, #179, #187 ) ;
#185 = LINE ( 'NONE', #123, #20 ) ;
#186 = VERTEX_POINT ( 'NONE', #380 ) ;
#187 = APPROVAL_ROLE ( '' ) ;
#188 = CC_DESIGN_APPROVAL ( #229, ( #342 ) ) ;
#189 = CARTESIAN_POINT ( 'NONE',  ( 0.000000000000000000, 0.000000000000000000, 15.00000000000000000 ) ) ;
#190 = PLANE ( 'NONE',  #385 ) ;
#191 = APPROVAL_DATE_TIME ( #321, #229 ) ;
#192 = EDGE_CURVE ( 'NONE', #157, #186, #360, .T. ) ;
#193 = PERSON_AND_ORGANIZATION ( #31, #322 ) ;
#194 = ORIENTED_EDGE ( 'NONE', *, *, #225, .F. ) ;
#195 = CARTESIAN_POINT ( 'NONE',  ( 10.00000000000000000, 1.224646799147353256E-15, 15.00000000000000000 ) ) ;
#196 = CARTESIAN_POINT ( 'NONE',  ( 0.000000000000000000, 0.000000000000000000, 8.000000000000000000 ) ) ;
#197 = CARTESIAN_POINT ( 'NONE',  ( -3.000000000000000444, 0.000000000000000000, 0.000000000000000000 ) ) ;
#198 = AXIS2_PLACEMENT_3D ( 'NONE', #81, #384, #215 ) ;
#199 = DIRECTION ( 'NONE',  ( -0.000000000000000000, -0.000000000000000000, -1.000000000000000000 ) ) ;
#200 = ORIENTED_EDGE ( 'NONE', *, *, #15, .F. ) ;
#201 = COORDINATED_UNIVERSAL_TIME_OFFSET ( 1, 0, .AHEAD. ) ;
#202 = ORIENTED_EDGE ( 'NONE', *, *, #168, .F. ) ;
#203 = CC_DESIGN_PERSON_AND_ORGANIZATION_ASSIGNMENT ( #290, #47, ( #342 ) ) ;
#204 = EDGE_CURVE ( 'NONE', #235, #206, #42, .T. ) ;
#205 = CYLINDRICAL_SURFACE ( 'NONE', #18, 3.000000000000000444 ) ;
#206 = VERTEX_POINT ( 'NONE', #116 ) ;
#207 = ORIENTED_EDGE ( 'NONE', *, *, #356, .T. ) ;
#208 = CARTESIAN_POINT ( 'NONE',  ( 0.000000000000000000, 0.000000000000000000, 8.000000000000000000 ) ) ;
#209 = CC_DESIGN_SECURITY_CLASSIFICATION ( #342, ( #239 ) ) ;
#210 = PLANE ( 'NONE',  #142 ) ;
#211 = ORIENTED_EDGE ( 'NONE', *, *, #204, .T. ) ;
#212 = DIRECTION ( 'NONE',  ( 0.000000000000000000, 0.000000000000000000, -1.000000000000000000 ) ) ;
#213 = ORIENTED_EDGE ( 'NONE', *, *, #111, .T. ) ;
#214 = CARTESIAN_POINT ( 'NONE',  ( 0.000000000000000000, 0.000000000000000000, 8.000000000000000000 ) ) ;
#215 = DIRECTION ( 'NONE',  ( 1.000000000000000000, 0.000000000000000000, 0.000000000000000000 ) ) ;
#216 = PERSON_AND_ORGANIZATION ( #31, #322 ) ;
#217 = VECTOR ( 'NONE', #110, 1000.000000000000000 ) ;
#218 = APPROVAL_STATUS ( 'not_yet_approved' ) ;
#219 = DIRECTION ( 'NONE',  ( -1.000000000000000000, 0.000000000000000000, 0.000000000000000000 ) ) ;
#220 = CIRCLE ( 'NONE', #72, 10.00000000000000000 ) ;
#221 = ORIENTED_EDGE ( 'NONE', *, *, #225, .T. ) ;
#222 = ADVANCED_FACE ( 'NONE', ( #357 ), #255, .T. ) ;
#223 = DIRECTION ( 'NONE',  ( 0.000000000000000000, 0.000000000000000000, 1.000000000000000000 ) ) ;
#224 =( NAMED_UNIT ( * ) SI_UNIT ( $, .STERADIAN. ) SOLID_ANGLE_UNIT ( ) );
#225 = EDGE_CURVE ( 'NONE', #273, #334, #283, .T. ) ;
#226 = PERSON_AND_ORGANIZATION ( #31, #322 ) ;
#227 = LINE ( 'NONE', #320, #369 ) ;
#228 = CARTESIAN_POINT ( 'NONE',  ( 0.000000000000000000, 0.000000000000000000, 8.000000000000000000 ) ) ;
#229 = APPROVAL ( #311, 'NON SPECIFICATO' ) ;
#230 = CIRCLE ( 'NONE', #352, 3.000000000000000444 ) ;
#231 = EDGE_LOOP ( 'NONE', ( #284, #316 ) ) ;
#232 = CARTESIAN_POINT ( 'NONE',  ( 3.000000000000000444, 3.673940397442060361E-16, 15.00000000000000000 ) ) ;
#233 = PLANE ( 'NONE',  #130 ) ;
#234 = PERSON_AND_ORGANIZATION ( #31, #322 ) ;
#235 = VERTEX_POINT ( 'NONE', #335 ) ;
#236 = DIRECTION ( 'NONE',  ( 1.000000000000000000, 0.000000000000000000, 0.000000000000000000 ) ) ;
#237 = ORIENTED_EDGE ( 'NONE', *, *, #75, .F. ) ;
#238 = DIRECTION ( 'NONE',  ( 0.000000000000000000, 0.000000000000000000, 1.000000000000000000 ) ) ;
#239 = PRODUCT_DEFINITION_FORMATION_WITH_SPECIFIED_SOURCE ( 'TUTTO', '', #383, .NOT_KNOWN. ) ;
#240 = DIRECTION ( 'NONE',  ( 1.000000000000000000, 0.000000000000000000, 0.000000000000000000 ) ) ;
#241 = CARTESIAN_POINT ( 'NONE',  ( 0.000000000000000000, 0.000000000000000000, 30.00000000000000000 ) ) ;
#242 = VECTOR ( 'NONE', #102, 1000.000000000000000 ) ;
#243 = EDGE_LOOP ( 'NONE', ( #301, #163 ) ) ;
#244 = PERSON_AND_ORGANIZATION_ROLE ( 'creator' ) ;
#245 = PERSON_AND_ORGANIZATION_ROLE ( 'design_owner' ) ;
#246 = DATE_TIME_ROLE ( 'creation_date' ) ;
#247 = CALENDAR_DATE ( 2022, 10, 3 ) ;
#248 = CONICAL_SURFACE ( 'NONE', #298, 2.499999999999998668, 0.7853981633974426169 ) ;
#249 = EDGE_LOOP ( 'NONE', ( #77, #211, #118, #1 ) ) ;
#250 = DIRECTION ( 'NONE',  ( 1.000000000000000000, 0.000000000000000000, 0.000000000000000000 ) ) ;
#251 = DIRECTION ( 'NONE',  ( -1.000000000000000000, 0.000000000000000000, 0.000000000000000000 ) ) ;
#252 = APPROVAL_ROLE ( '' ) ;
#253 = DIRECTION ( 'NONE',  ( -0.000000000000000000, -0.000000000000000000, -1.000000000000000000 ) ) ;
#254 = MANIFOLD_SOLID_BREP ( 'Taglio-Estrusione1', #358 ) ;
#255 = CYLINDRICAL_SURFACE ( 'NONE', #289, 3.000000000000000444 ) ;
#256 = ORIENTED_EDGE ( 'NONE', *, *, #4, .T. ) ;
#257 = VERTEX_POINT ( 'NONE', #64 ) ;
#258 = DIRECTION ( 'NONE',  ( 1.000000000000000000, 0.000000000000000000, 0.000000000000000000 ) ) ;
#259 = UNCERTAINTY_MEASURE_WITH_UNIT (LENGTH_MEASURE( 1.000000000000000082E-05 ), #305, 'distance_accuracy_value', 'NONE');
#260 = LOCAL_TIME ( 14, 58, 4.000000000000000000, #51 ) ;
#261 = APPROVAL_DATE_TIME ( #23, #150 ) ;
#262 = EDGE_LOOP ( 'NONE', ( #137, #286, #308, #346 ) ) ;
#263 = EDGE_CURVE ( 'NONE', #206, #235, #86, .T. ) ;
#264 = CARTESIAN_POINT ( 'NONE',  ( 10.00000000000000000, 1.224646799147353256E-15, 0.000000000000000000 ) ) ;
#265 = PERSON_AND_ORGANIZATION ( #31, #322 ) ;
#266 = LINE ( 'NONE', #287, #217 ) ;
#267 = PRODUCT_RELATED_PRODUCT_CATEGORY ( 'detail', '', ( #383 ) ) ;
#268 = DATE_AND_TIME ( #277, #106 ) ;
#269 = PLANE ( 'NONE',  #22 ) ;
#270 = DIRECTION ( 'NONE',  ( 0.000000000000000000, 0.000000000000000000, -1.000000000000000000 ) ) ;
#271 = CYLINDRICAL_SURFACE ( 'NONE', #45, 10.00000000000000000 ) ;
#272 = CIRCLE ( 'NONE', #63, 10.00000000000000000 ) ;
#273 = VERTEX_POINT ( 'NONE', #359 ) ;
#274 = CARTESIAN_POINT ( 'NONE',  ( 0.000000000000000000, 0.000000000000000000, 30.00000000000000000 ) ) ;
#275 = PRODUCT_DEFINITION_SHAPE ( 'NONE', 'NONE',  #280 ) ;
#276 = ADVANCED_FACE ( 'NONE', ( #330 ), #269, .T. ) ;
#277 = CALENDAR_DATE ( 2022, 10, 3 ) ;
#278 = ADVANCED_FACE ( 'NONE', ( #368 ), #205, .T. ) ;
#279 = APPROVAL_STATUS ( 'not_yet_approved' ) ;
#280 = PRODUCT_DEFINITION ( 'NON CONOSCIUTO', '', #239, #55 ) ;
#281 = DIRECTION ( 'NONE',  ( -1.000000000000000000, 0.000000000000000000, 0.000000000000000000 ) ) ;
#282 = APPLICATION_CONTEXT ( 'configuration controlled 3d designs of mechanical parts and assemblies' ) ;
#283 = CIRCLE ( 'NONE', #88, 2.499999999999998668 ) ;
#284 = ORIENTED_EDGE ( 'NONE', *, *, #84, .T. ) ;
#285 = ORIENTED_EDGE ( 'NONE', *, *, #4, .F. ) ;
#286 = ORIENTED_EDGE ( 'NONE', *, *, #58, .T. ) ;
#287 = CARTESIAN_POINT ( 'NONE',  ( 2.499999999999998668, 3.061616997868381662E-16, 30.00000000000000000 ) ) ;
#288 = DATE_AND_TIME ( #139, #260 ) ;
#289 = AXIS2_PLACEMENT_3D ( 'NONE', #296, #329, #59 ) ;
#290 = PERSON_AND_ORGANIZATION ( #31, #322 ) ;
#291 = VERTEX_POINT ( 'NONE', #299 ) ;
#292 = DIRECTION ( 'NONE',  ( -1.000000000000000000, 0.000000000000000000, 0.000000000000000000 ) ) ;
#293 = EDGE_CURVE ( 'NONE', #186, #25, #145, .T. ) ;
#294 = DIRECTION ( 'NONE',  ( 1.000000000000000000, 0.000000000000000000, -0.000000000000000000 ) ) ;
#295 = ORIENTED_EDGE ( 'NONE', *, *, #149, .T. ) ;
#296 = CARTESIAN_POINT ( 'NONE',  ( 0.000000000000000000, 0.000000000000000000, 30.00000000000000000 ) ) ;
#297 = DIRECTION ( 'NONE',  ( 0.000000000000000000, 0.000000000000000000, 1.000000000000000000 ) ) ;
#298 = AXIS2_PLACEMENT_3D ( 'NONE', #241, #270, #219 ) ;
#299 = CARTESIAN_POINT ( 'NONE',  ( 3.000000000000000444, 3.673940397442060361E-16, 0.000000000000000000 ) ) ;
#300 = APPROVAL_PERSON_ORGANIZATION ( #193, #150, #97 ) ;
#301 = ORIENTED_EDGE ( 'NONE', *, *, #125, .F. ) ;
#302 = CARTESIAN_POINT ( 'NONE',  ( -10.00000000000000000, 0.000000000000000000, 15.00000000000000000 ) ) ;
#303 = FACE_OUTER_BOUND ( 'NONE', #2, .T. ) ;
#304 = ORIENTED_EDGE ( 'NONE', *, *, #101, .F. ) ;
#305 =( LENGTH_UNIT ( ) NAMED_UNIT ( * ) SI_UNIT ( .MILLI., .METRE. ) );
#306 = PERSON_AND_ORGANIZATION_ROLE ( 'creator' ) ;
#307 = FACE_OUTER_BOUND ( 'NONE', #16, .T. ) ;
#308 = ORIENTED_EDGE ( 'NONE', *, *, #79, .T. ) ;
#309 = CARTESIAN_POINT ( 'NONE',  ( 0.000000000000000000, 0.000000000000000000, 15.00000000000000000 ) ) ;
#310 = AXIS2_PLACEMENT_3D ( 'NONE', #120, #212, #174 ) ;
#311 = APPROVAL_STATUS ( 'not_yet_approved' ) ;
#312 = EDGE_CURVE ( 'NONE', #186, #157, #12, .T. ) ;
#313 = COORDINATED_UNIVERSAL_TIME_OFFSET ( 1, 0, .AHEAD. ) ;
#314 = ORIENTED_EDGE ( 'NONE', *, *, #293, .F. ) ;
#315 = CARTESIAN_POINT ( 'NONE',  ( 0.000000000000000000, 0.000000000000000000, 15.00000000000000000 ) ) ;
#316 = ORIENTED_EDGE ( 'NONE', *, *, #10, .T. ) ;
#317 = DIRECTION ( 'NONE',  ( 0.000000000000000000, 0.000000000000000000, 1.000000000000000000 ) ) ;
#318 = CARTESIAN_POINT ( 'NONE',  ( 0.000000000000000000, 0.000000000000000000, 15.00000000000000000 ) ) ;
#319 = CC_DESIGN_DATE_AND_TIME_ASSIGNMENT ( #333, #246, ( #280 ) ) ;
#320 = CARTESIAN_POINT ( 'NONE',  ( -3.000000000000000444, 0.000000000000000000, 30.00000000000000000 ) ) ;
#321 = DATE_AND_TIME ( #247, #169 ) ;
#322 = ORGANIZATION ( 'NON SPECIFICATO', 'NON SPECIFICATO', '' ) ;
#323 = DIRECTION ( 'NONE',  ( 0.000000000000000000, 0.000000000000000000, 1.000000000000000000 ) ) ;
#324 = CARTESIAN_POINT ( 'NONE',  ( 0.000000000000000000, 0.000000000000000000, 30.00000000000000000 ) ) ;
#325 = FACE_OUTER_BOUND ( 'NONE', #378, .T. ) ;
#326 = ORIENTED_EDGE ( 'NONE', *, *, #192, .F. ) ;
#327 = EDGE_LOOP ( 'NONE', ( #326, #207, #113, #314 ) ) ;
#328 = DIRECTION ( 'NONE',  ( 0.000000000000000000, 0.000000000000000000, 1.000000000000000000 ) ) ;
#329 = DIRECTION ( 'NONE',  ( -0.000000000000000000, -0.000000000000000000, -1.000000000000000000 ) ) ;
#330 = FACE_OUTER_BOUND ( 'NONE', #83, .T. ) ;
#331 = ORIENTED_EDGE ( 'NONE', *, *, #84, .F. ) ;
#332 = AXIS2_PLACEMENT_3D ( 'NONE', #189, #155, #251 ) ;
#333 = DATE_AND_TIME ( #19, #61 ) ;
#334 = VERTEX_POINT ( 'NONE', #95 ) ;
#335 = CARTESIAN_POINT ( 'NONE',  ( 3.000000000000000444, 3.673940397442060361E-16, 29.49999999999999289 ) ) ;
#336 = ADVANCED_FACE ( 'NONE', ( #307 ), #248, .T. ) ;
#337 = DIRECTION ( 'NONE',  ( 0.000000000000000000, 0.000000000000000000, -1.000000000000000000 ) ) ;
#338 = ADVANCED_FACE ( 'NONE', ( #175 ), #271, .T. ) ;
#339 =( NAMED_UNIT ( * ) PLANE_ANGLE_UNIT ( ) SI_UNIT ( $, .RADIAN. ) );
#340 = VECTOR ( 'NONE', #69, 1000.000000000000000 ) ;
#341 = ORIENTED_EDGE ( 'NONE', *, *, #79, .F. ) ;
#342 = SECURITY_CLASSIFICATION ( '', '', #164 ) ;
#343 = DIRECTION ( 'NONE',  ( 0.000000000000000000, 0.000000000000000000, 1.000000000000000000 ) ) ;
#344 = EDGE_CURVE ( 'NONE', #291, #25, #126, .T. ) ;
#345 = DIRECTION ( 'NONE',  ( 0.000000000000000000, 0.000000000000000000, -1.000000000000000000 ) ) ;
#346 = ORIENTED_EDGE ( 'NONE', *, *, #115, .F. ) ;
#347 = VERTEX_POINT ( 'NONE', #33 ) ;
#348 = AXIS2_PLACEMENT_3D ( 'NONE', #196, #337, #103 ) ;
#349 = APPROVAL_DATE_TIME ( #268, #179 ) ;
#350 = VERTEX_POINT ( 'NONE', #302 ) ;
#351 = DIRECTION ( 'NONE',  ( 1.000000000000000000, 0.000000000000000000, 0.000000000000000000 ) ) ;
#352 = AXIS2_PLACEMENT_3D ( 'NONE', #46, #317, #258 ) ;
#353 = ORIENTED_EDGE ( 'NONE', *, *, #10, .F. ) ;
#354 = ORIENTED_EDGE ( 'NONE', *, *, #312, .T. ) ;
#355 = CARTESIAN_POINT ( 'NONE',  ( 0.000000000000000000, 0.000000000000000000, 30.00000000000000000 ) ) ;
#356 = EDGE_CURVE ( 'NONE', #157, #291, #73, .T. ) ;
#357 = FACE_OUTER_BOUND ( 'NONE', #262, .T. ) ;
#358 = CLOSED_SHELL ( 'NONE', ( #93, #32, #222, #338, #363, #154, #372, #278, #129, #336, #70, #276 ) ) ;
#359 = CARTESIAN_POINT ( 'NONE',  ( -2.499999999999998668, 0.000000000000000000, 30.00000000000000000 ) ) ;
#360 = CIRCLE ( 'NONE', #371, 3.000000000000000444 ) ;
#361 = FACE_OUTER_BOUND ( 'NONE', #327, .T. ) ;
#362 = ORIENTED_EDGE ( 'NONE', *, *, #356, .F. ) ;
#363 = ADVANCED_FACE ( 'NONE', ( #170 ), #7, .T. ) ;
#364 = CARTESIAN_POINT ( 'NONE',  ( 3.000000000000000444, 3.673940397442060361E-16, 8.000000000000000000 ) ) ;
#365 =( GEOMETRIC_REPRESENTATION_CONTEXT ( 3 ) GLOBAL_UNCERTAINTY_ASSIGNED_CONTEXT ( ( #259 ) ) GLOBAL_UNIT_ASSIGNED_CONTEXT ( ( #305, #339, #224 ) ) REPRESENTATION_CONTEXT ( 'NONE', 'WORKASPACE' ) );
#366 = EDGE_LOOP ( 'NONE', ( #202, #52, #156, #38 ) ) ;
#367 = DIRECTION ( 'NONE',  ( 1.000000000000000000, 0.000000000000000000, 0.000000000000000000 ) ) ;
#368 = FACE_OUTER_BOUND ( 'NONE', #249, .T. ) ;
#369 = VECTOR ( 'NONE', #377, 1000.000000000000000 ) ;
#370 = CARTESIAN_POINT ( 'NONE',  ( 3.000000000000000444, 3.673940397442060361E-16, 30.00000000000000000 ) ) ;
#371 = AXIS2_PLACEMENT_3D ( 'NONE', #208, #53, #292 ) ;
#372 = ADVANCED_FACE ( 'NONE', ( #89, #325 ), #190, .F. ) ;
#373 = APPROVAL_PERSON_ORGANIZATION ( #234, #229, #252 ) ;
#374 = EDGE_CURVE ( 'NONE', #128, #165, #37, .T. ) ;
#375 = CC_DESIGN_APPROVAL ( #179, ( #280 ) ) ;
#376 = COORDINATED_UNIVERSAL_TIME_OFFSET ( 1, 0, .AHEAD. ) ;
#377 = DIRECTION ( 'NONE',  ( -0.000000000000000000, -0.000000000000000000, -1.000000000000000000 ) ) ;
#378 = EDGE_LOOP ( 'NONE', ( #87, #108 ) ) ;
#379 = VECTOR ( 'NONE', #199, 1000.000000000000000 ) ;
#380 = CARTESIAN_POINT ( 'NONE',  ( -3.000000000000000444, 0.000000000000000000, 8.000000000000000000 ) ) ;
#381 = DIRECTION ( 'NONE',  ( 0.000000000000000000, 0.000000000000000000, 1.000000000000000000 ) ) ;
#382 = COORDINATED_UNIVERSAL_TIME_OFFSET ( 1, 0, .AHEAD. ) ;
#383 = PRODUCT ( '5SU1049_ Anti vibration mount', '5SU1049_ Anti vibration mount', '', ( #135 ) ) ;
#384 = DIRECTION ( 'NONE',  ( 0.000000000000000000, 0.000000000000000000, -1.000000000000000000 ) ) ;
#385 = AXIS2_PLACEMENT_3D ( 'NONE', #162, #100, #3 ) ;
ENDSEC;
END-ISO-10303-21;
