ISO-10303-21;
HEADER;
FILE_DESCRIPTION (( 'STEP AP203' ),
    '1' );
FILE_NAME ('5SU1054_ Anti vibration mount.STEP',
    '2022-03-10T14:00:41',
    ( '' ),
    ( '' ),
    'SwSTEP 2.0',
    'SolidWorks 2018',
    '' );
FILE_SCHEMA (( 'CONFIG_CONTROL_DESIGN' ));
ENDSEC;

DATA;
#1 = DIRECTION ( 'NONE',  ( 1.000000000000000000, 0.000000000000000000, 0.000000000000000000 ) ) ;
#2 = CARTESIAN_POINT ( 'NONE',  ( 0.000000000000000000, 0.000000000000000000, 8.000000000000000000 ) ) ;
#3 = CIRCLE ( 'NONE', #201, 5.000000000000000000 ) ;
#4 = CC_DESIGN_PERSON_AND_ORGANIZATION_ASSIGNMENT ( #125, #53, ( #178 ) ) ;
#5 = PLANE ( 'NONE',  #9 ) ;
#6 = CARTESIAN_POINT ( 'NONE',  ( -20.00000000000000000, 0.000000000000000000, 30.00000000000000000 ) ) ;
#7 = VERTEX_POINT ( 'NONE', #203 ) ;
#8 = ORIENTED_EDGE ( 'NONE', *, *, #25, .F. ) ;
#9 = AXIS2_PLACEMENT_3D ( 'NONE', #218, #10, #104 ) ;
#10 = DIRECTION ( 'NONE',  ( 0.000000000000000000, 0.000000000000000000, 1.000000000000000000 ) ) ;
#11 = COORDINATED_UNIVERSAL_TIME_OFFSET ( 1, 0, .AHEAD. ) ;
#12 = CARTESIAN_POINT ( 'NONE',  ( 5.000000000000000000, 6.123233995736766282E-16, 30.00000000000000000 ) ) ;
#13 = DIRECTION ( 'NONE',  ( 0.000000000000000000, 0.000000000000000000, 1.000000000000000000 ) ) ;
#14 =( NAMED_UNIT ( * ) PLANE_ANGLE_UNIT ( ) SI_UNIT ( $, .RADIAN. ) );
#15 = CYLINDRICAL_SURFACE ( 'NONE', #85, 5.000000000000000000 ) ;
#16 = AXIS2_PLACEMENT_3D ( 'NONE', #256, #162, #193 ) ;
#17 = ORIENTED_EDGE ( 'NONE', *, *, #95, .T. ) ;
#18 = ORIENTED_EDGE ( 'NONE', *, *, #25, .T. ) ;
#19 = PRODUCT ( '5SU1054_ Anti vibration mount', '5SU1054_ Anti vibration mount', '', ( #258 ) ) ;
#20 = SECURITY_CLASSIFICATION_LEVEL ( 'unclassified' ) ;
#21 = CIRCLE ( 'NONE', #73, 4.500000000000003553 ) ;
#22 = FACE_OUTER_BOUND ( 'NONE', #319, .T. ) ;
#23 = CC_DESIGN_APPROVAL ( #345, ( #335 ) ) ;
#24 = LOCAL_TIME ( 15, 0, 41.00000000000000000, #11 ) ;
#25 = EDGE_CURVE ( 'NONE', #45, #292, #75, .T. ) ;
#26 = CARTESIAN_POINT ( 'NONE',  ( 5.000000000000000000, 6.123233995736766282E-16, 57.50000000000000000 ) ) ;
#27 = DIRECTION ( 'NONE',  ( -0.000000000000000000, -0.000000000000000000, -1.000000000000000000 ) ) ;
#28 = CARTESIAN_POINT ( 'NONE',  ( 5.000000000000000000, 6.123233995736766282E-16, 8.000000000000000000 ) ) ;
#29 = ADVANCED_FACE ( 'NONE', ( #58, #138 ), #352, .T. ) ;
#30 = CARTESIAN_POINT ( 'NONE',  ( 0.000000000000000000, 0.000000000000000000, 0.000000000000000000 ) ) ;
#31 = DATE_AND_TIME ( #187, #305 ) ;
#32 = VECTOR ( 'NONE', #147, 1000.000000000000114 ) ;
#33 = ORIENTED_EDGE ( 'NONE', *, *, #173, .T. ) ;
#34 = APPROVAL ( #136, 'NON SPECIFICATO' ) ;
#35 = DIRECTION ( 'NONE',  ( 0.000000000000000000, 0.000000000000000000, 1.000000000000000000 ) ) ;
#36 = EDGE_CURVE ( 'NONE', #102, #116, #368, .T. ) ;
#37 = DIRECTION ( 'NONE',  ( -0.000000000000000000, -0.000000000000000000, -1.000000000000000000 ) ) ;
#38 = DATE_AND_TIME ( #317, #24 ) ;
#39 = DIRECTION ( 'NONE',  ( -1.000000000000000000, 0.000000000000000000, 0.000000000000000000 ) ) ;
#40 = VECTOR ( 'NONE', #174, 1000.000000000000000 ) ;
#41 = ORIENTED_EDGE ( 'NONE', *, *, #64, .T. ) ;
#42 = CC_DESIGN_DATE_AND_TIME_ASSIGNMENT ( #105, #262, ( #178 ) ) ;
#43 = EDGE_CURVE ( 'NONE', #281, #208, #238, .T. ) ;
#44 = CIRCLE ( 'NONE', #16, 5.000000000000000000 ) ;
#45 = VERTEX_POINT ( 'NONE', #26 ) ;
#46 = EDGE_CURVE ( 'NONE', #51, #355, #339, .T. ) ;
#47 = CARTESIAN_POINT ( 'NONE',  ( -4.500000000000003553, 0.000000000000000000, 57.99999999999999289 ) ) ;
#48 = CARTESIAN_POINT ( 'NONE',  ( 0.000000000000000000, 0.000000000000000000, 8.000000000000000000 ) ) ;
#49 = CC_DESIGN_PERSON_AND_ORGANIZATION_ASSIGNMENT ( #278, #139, ( #335 ) ) ;
#50 = DIRECTION ( 'NONE',  ( -1.000000000000000000, 0.000000000000000000, 0.000000000000000000 ) ) ;
#51 = VERTEX_POINT ( 'NONE', #267 ) ;
#52 = EDGE_CURVE ( 'NONE', #140, #251, #3, .T. ) ;
#53 = PERSON_AND_ORGANIZATION_ROLE ( 'creator' ) ;
#54 = PERSON ( 'NON SPECIFICATO', 'NON SPECIFICATO', 'NON SPECIFICATO', ('NON SPECIFICATO'), ('NON SPECIFICATO'), ('NON SPECIFICATO') ) ;
#55 = APPLICATION_CONTEXT ( 'configuration controlled 3d designs of mechanical parts and assemblies' ) ;
#56 = APPROVAL_PERSON_ORGANIZATION ( #340, #242, #118 ) ;
#57 = DIRECTION ( 'NONE',  ( -0.000000000000000000, -0.000000000000000000, -1.000000000000000000 ) ) ;
#58 = FACE_BOUND ( 'NONE', #226, .T. ) ;
#59 = CARTESIAN_POINT ( 'NONE',  ( 20.00000000000000000, 2.449293598294706513E-15, 30.00000000000000000 ) ) ;
#60 = AXIS2_PLACEMENT_3D ( 'NONE', #293, #346, #163 ) ;
#61 = ORGANIZATION ( 'NON SPECIFICATO', 'NON SPECIFICATO', '' ) ;
#62 = VECTOR ( 'NONE', #299, 1000.000000000000000 ) ;
#63 = ORIENTED_EDGE ( 'NONE', *, *, #88, .F. ) ;
#64 = EDGE_CURVE ( 'NONE', #7, #135, #296, .T. ) ;
#65 = CARTESIAN_POINT ( 'NONE',  ( 0.000000000000000000, 0.000000000000000000, 0.000000000000000000 ) ) ;
#66 = LINE ( 'NONE', #273, #274 ) ;
#67 = ADVANCED_FACE ( 'NONE', ( #72 ), #128, .T. ) ;
#68 = ORIENTED_EDGE ( 'NONE', *, *, #70, .F. ) ;
#69 = ADVANCED_BREP_SHAPE_REPRESENTATION ( '5SU1054_ Anti vibration mount', ( #254, #60 ), #379 ) ;
#70 = EDGE_CURVE ( 'NONE', #208, #281, #285, .T. ) ;
#71 = CARTESIAN_POINT ( 'NONE',  ( 0.000000000000000000, 0.000000000000000000, 30.00000000000000000 ) ) ;
#72 = FACE_OUTER_BOUND ( 'NONE', #266, .T. ) ;
#73 = AXIS2_PLACEMENT_3D ( 'NONE', #277, #190, #225 ) ;
#74 = DIRECTION ( 'NONE',  ( -1.000000000000000000, 0.000000000000000000, 0.000000000000000000 ) ) ;
#75 = LINE ( 'NONE', #268, #318 ) ;
#76 = ORIENTED_EDGE ( 'NONE', *, *, #306, .T. ) ;
#77 = ORIENTED_EDGE ( 'NONE', *, *, #43, .T. ) ;
#78 = CC_DESIGN_APPROVAL ( #34, ( #178 ) ) ;
#79 = DIRECTION ( 'NONE',  ( 0.000000000000000000, 0.000000000000000000, -1.000000000000000000 ) ) ;
#80 = FACE_OUTER_BOUND ( 'NONE', #279, .T. ) ;
#81 = DIRECTION ( 'NONE',  ( -0.000000000000000000, -0.000000000000000000, -1.000000000000000000 ) ) ;
#82 = ORIENTED_EDGE ( 'NONE', *, *, #130, .F. ) ;
#83 = DIRECTION ( 'NONE',  ( 0.000000000000000000, 0.000000000000000000, 1.000000000000000000 ) ) ;
#84 = DIRECTION ( 'NONE',  ( -1.000000000000000000, 0.000000000000000000, -0.000000000000000000 ) ) ;
#85 = AXIS2_PLACEMENT_3D ( 'NONE', #232, #57, #347 ) ;
#86 = ORIENTED_EDGE ( 'NONE', *, *, #247, .T. ) ;
#87 = ORIENTED_EDGE ( 'NONE', *, *, #46, .F. ) ;
#88 = EDGE_CURVE ( 'NONE', #7, #270, #221, .T. ) ;
#89 = DATE_TIME_ROLE ( 'classification_date' ) ;
#90 = DIRECTION ( 'NONE',  ( -0.000000000000000000, -0.000000000000000000, -1.000000000000000000 ) ) ;
#91 = CYLINDRICAL_SURFACE ( 'NONE', #364, 20.00000000000000000 ) ;
#92 = APPROVAL_STATUS ( 'not_yet_approved' ) ;
#93 = DIRECTION ( 'NONE',  ( 1.000000000000000000, 0.000000000000000000, 0.000000000000000000 ) ) ;
#94 = CC_DESIGN_PERSON_AND_ORGANIZATION_ASSIGNMENT ( #194, #263, ( #207 ) ) ;
#95 = EDGE_CURVE ( 'NONE', #140, #208, #381, .T. ) ;
#96 = FACE_OUTER_BOUND ( 'NONE', #342, .T. ) ;
#97 = EDGE_LOOP ( 'NONE', ( #129, #98 ) ) ;
#98 = ORIENTED_EDGE ( 'NONE', *, *, #52, .T. ) ;
#99 = DIRECTION ( 'NONE',  ( 1.000000000000000000, 0.000000000000000000, 0.000000000000000000 ) ) ;
#100 = AXIS2_PLACEMENT_3D ( 'NONE', #369, #156, #74 ) ;
#101 = DIRECTION ( 'NONE',  ( -0.000000000000000000, -0.000000000000000000, -1.000000000000000000 ) ) ;
#102 = VERTEX_POINT ( 'NONE', #331 ) ;
#103 = CARTESIAN_POINT ( 'NONE',  ( -5.000000000000000000, 0.000000000000000000, 30.00000000000000000 ) ) ;
#104 = DIRECTION ( 'NONE',  ( 1.000000000000000000, 0.000000000000000000, -0.000000000000000000 ) ) ;
#105 = DATE_AND_TIME ( #353, #250 ) ;
#106 = ORIENTED_EDGE ( 'NONE', *, *, #371, .F. ) ;
#107 = PERSON_AND_ORGANIZATION ( #54, #61 ) ;
#108 = VECTOR ( 'NONE', #154, 1000.000000000000000 ) ;
#109 = ORIENTED_EDGE ( 'NONE', *, *, #204, .F. ) ;
#110 = CARTESIAN_POINT ( 'NONE',  ( 0.000000000000000000, 0.000000000000000000, 0.000000000000000000 ) ) ;
#111 = CC_DESIGN_DATE_AND_TIME_ASSIGNMENT ( #175, #89, ( #207 ) ) ;
#112 = CARTESIAN_POINT ( 'NONE',  ( -5.000000000000000000, 0.000000000000000000, 8.000000000000000000 ) ) ;
#113 = SHAPE_DEFINITION_REPRESENTATION ( #120, #69 ) ;
#114 = APPROVAL_ROLE ( '' ) ;
#115 = LINE ( 'NONE', #356, #108 ) ;
#116 = VERTEX_POINT ( 'NONE', #103 ) ;
#117 = PRODUCT_RELATED_PRODUCT_CATEGORY ( 'detail', '', ( #19 ) ) ;
#118 = APPROVAL_ROLE ( '' ) ;
#119 = ADVANCED_FACE ( 'NONE', ( #310 ), #354, .F. ) ;
#120 = PRODUCT_DEFINITION_SHAPE ( 'NONE', 'NONE',  #178 ) ;
#121 = FACE_OUTER_BOUND ( 'NONE', #151, .T. ) ;
#122 = ADVANCED_FACE ( 'NONE', ( #150, #290 ), #241, .F. ) ;
#123 = ORIENTED_EDGE ( 'NONE', *, *, #64, .F. ) ;
#124 = DIRECTION ( 'NONE',  ( 0.000000000000000000, 0.000000000000000000, 1.000000000000000000 ) ) ;
#125 = PERSON_AND_ORGANIZATION ( #54, #61 ) ;
#126 = CC_DESIGN_SECURITY_CLASSIFICATION ( #207, ( #335 ) ) ;
#127 = CARTESIAN_POINT ( 'NONE',  ( 0.000000000000000000, 0.000000000000000000, 57.99999999999999289 ) ) ;
#128 = CYLINDRICAL_SURFACE ( 'NONE', #367, 5.000000000000000000 ) ;
#129 = ORIENTED_EDGE ( 'NONE', *, *, #224, .T. ) ;
#130 = EDGE_CURVE ( 'NONE', #152, #135, #212, .T. ) ;
#131 = ORIENTED_EDGE ( 'NONE', *, *, #36, .T. ) ;
#132 = AXIS2_PLACEMENT_3D ( 'NONE', #30, #383, #211 ) ;
#133 = CARTESIAN_POINT ( 'NONE',  ( 0.000000000000000000, 0.000000000000000000, 8.000000000000000000 ) ) ;
#134 = ORIENTED_EDGE ( 'NONE', *, *, #52, .F. ) ;
#135 = VERTEX_POINT ( 'NONE', #301 ) ;
#136 = APPROVAL_STATUS ( 'not_yet_approved' ) ;
#137 = AXIS2_PLACEMENT_3D ( 'NONE', #65, #124, #181 ) ;
#138 = FACE_OUTER_BOUND ( 'NONE', #297, .T. ) ;
#139 = PERSON_AND_ORGANIZATION_ROLE ( 'creator' ) ;
#140 = VERTEX_POINT ( 'NONE', #177 ) ;
#141 = EDGE_CURVE ( 'NONE', #355, #102, #66, .T. ) ;
#142 = FACE_OUTER_BOUND ( 'NONE', #329, .T. ) ;
#143 = ORIENTED_EDGE ( 'NONE', *, *, #247, .F. ) ;
#144 = EDGE_LOOP ( 'NONE', ( #8, #280, #131, #76 ) ) ;
#145 = DIRECTION ( 'NONE',  ( 0.000000000000000000, 0.000000000000000000, -1.000000000000000000 ) ) ;
#146 = EDGE_CURVE ( 'NONE', #51, #45, #265, .T. ) ;
#147 = DIRECTION ( 'NONE',  ( 0.7071067811865493491, 8.659560562354957510E-17, -0.7071067811865456854 ) ) ;
#148 = CIRCLE ( 'NONE', #223, 20.00000000000000000 ) ;
#149 = DIRECTION ( 'NONE',  ( -1.000000000000000000, 0.000000000000000000, 0.000000000000000000 ) ) ;
#150 = FACE_BOUND ( 'NONE', #248, .T. ) ;
#151 = EDGE_LOOP ( 'NONE', ( #63, #41, #384, #308 ) ) ;
#152 = VERTEX_POINT ( 'NONE', #385 ) ;
#153 = CARTESIAN_POINT ( 'NONE',  ( 0.000000000000000000, 0.000000000000000000, 8.000000000000000000 ) ) ;
#154 = DIRECTION ( 'NONE',  ( -0.000000000000000000, -0.000000000000000000, -1.000000000000000000 ) ) ;
#155 = CARTESIAN_POINT ( 'NONE',  ( 0.000000000000000000, 0.000000000000000000, 30.00000000000000000 ) ) ;
#156 = DIRECTION ( 'NONE',  ( 0.000000000000000000, 0.000000000000000000, -1.000000000000000000 ) ) ;
#157 = VECTOR ( 'NONE', #37, 1000.000000000000000 ) ;
#158 = AXIS2_PLACEMENT_3D ( 'NONE', #133, #161, #315 ) ;
#159 = APPROVAL_DATE_TIME ( #31, #242 ) ;
#160 = EDGE_CURVE ( 'NONE', #102, #45, #341, .T. ) ;
#161 = DIRECTION ( 'NONE',  ( -0.000000000000000000, -0.000000000000000000, -1.000000000000000000 ) ) ;
#162 = DIRECTION ( 'NONE',  ( 0.000000000000000000, 0.000000000000000000, -1.000000000000000000 ) ) ;
#163 = DIRECTION ( 'NONE',  ( 1.000000000000000000, 0.000000000000000000, 0.000000000000000000 ) ) ;
#164 =( NAMED_UNIT ( * ) SI_UNIT ( $, .STERADIAN. ) SOLID_ANGLE_UNIT ( ) );
#165 = COORDINATED_UNIVERSAL_TIME_OFFSET ( 1, 0, .AHEAD. ) ;
#166 = EDGE_LOOP ( 'NONE', ( #82, #109 ) ) ;
#167 = APPLICATION_PROTOCOL_DEFINITION ( 'international standard', 'config_control_design', 1994, #288 ) ;
#168 = DIRECTION ( 'NONE',  ( -1.000000000000000000, 0.000000000000000000, 0.000000000000000000 ) ) ;
#169 = CYLINDRICAL_SURFACE ( 'NONE', #158, 5.000000000000000000 ) ;
#170 = CIRCLE ( 'NONE', #228, 20.00000000000000000 ) ;
#171 = ORIENTED_EDGE ( 'NONE', *, *, #88, .T. ) ;
#172 = AXIS2_PLACEMENT_3D ( 'NONE', #227, #83, #286 ) ;
#173 = EDGE_CURVE ( 'NONE', #270, #152, #115, .T. ) ;
#174 = DIRECTION ( 'NONE',  ( -0.000000000000000000, -0.000000000000000000, -1.000000000000000000 ) ) ;
#175 = DATE_AND_TIME ( #257, #376 ) ;
#176 = LOCAL_TIME ( 15, 0, 41.00000000000000000, #269 ) ;
#177 = CARTESIAN_POINT ( 'NONE',  ( 5.000000000000000000, 6.123233995736766282E-16, 8.000000000000000000 ) ) ;
#178 = PRODUCT_DEFINITION ( 'NON CONOSCIUTO', '', #335, #217 ) ;
#179 = ADVANCED_FACE ( 'NONE', ( #121 ), #348, .T. ) ;
#180 = CARTESIAN_POINT ( 'NONE',  ( 0.000000000000000000, 0.000000000000000000, 0.000000000000000000 ) ) ;
#181 = DIRECTION ( 'NONE',  ( 1.000000000000000000, 0.000000000000000000, -0.000000000000000000 ) ) ;
#182 = ORIENTED_EDGE ( 'NONE', *, *, #183, .F. ) ;
#183 = EDGE_CURVE ( 'NONE', #292, #116, #333, .T. ) ;
#184 = CARTESIAN_POINT ( 'NONE',  ( -5.000000000000000000, 0.000000000000000000, 8.000000000000000000 ) ) ;
#185 = AXIS2_PLACEMENT_3D ( 'NONE', #48, #363, #84 ) ;
#186 = DIRECTION ( 'NONE',  ( 0.000000000000000000, 0.000000000000000000, 1.000000000000000000 ) ) ;
#187 = CALENDAR_DATE ( 2022, 10, 3 ) ;
#188 = UNCERTAINTY_MEASURE_WITH_UNIT (LENGTH_MEASURE( 1.000000000000000082E-05 ), #196, 'distance_accuracy_value', 'NONE');
#189 = ORIENTED_EDGE ( 'NONE', *, *, #337, .F. ) ;
#190 = DIRECTION ( 'NONE',  ( 0.000000000000000000, 0.000000000000000000, 1.000000000000000000 ) ) ;
#191 = AXIS2_PLACEMENT_3D ( 'NONE', #206, #323, #93 ) ;
#192 = DIRECTION ( 'NONE',  ( 1.000000000000000000, 0.000000000000000000, 0.000000000000000000 ) ) ;
#193 = DIRECTION ( 'NONE',  ( -1.000000000000000000, 0.000000000000000000, 0.000000000000000000 ) ) ;
#194 = PERSON_AND_ORGANIZATION ( #54, #61 ) ;
#195 = EDGE_LOOP ( 'NONE', ( #123, #143, #33, #362 ) ) ;
#196 =( LENGTH_UNIT ( ) NAMED_UNIT ( * ) SI_UNIT ( .MILLI., .METRE. ) );
#197 = ORIENTED_EDGE ( 'NONE', *, *, #70, .T. ) ;
#198 = APPROVAL_ROLE ( '' ) ;
#199 = CC_DESIGN_PERSON_AND_ORGANIZATION_ASSIGNMENT ( #230, #200, ( #335 ) ) ;
#200 = PERSON_AND_ORGANIZATION_ROLE ( 'design_supplier' ) ;
#201 = AXIS2_PLACEMENT_3D ( 'NONE', #153, #307, #360 ) ;
#202 = ORIENTED_EDGE ( 'NONE', *, *, #224, .F. ) ;
#203 = CARTESIAN_POINT ( 'NONE',  ( 20.00000000000000000, 2.449293598294706513E-15, 30.00000000000000000 ) ) ;
#204 = EDGE_CURVE ( 'NONE', #135, #152, #170, .T. ) ;
#205 = APPROVAL_DATE_TIME ( #38, #34 ) ;
#206 = CARTESIAN_POINT ( 'NONE',  ( 0.000000000000000000, 0.000000000000000000, 57.99999999999999289 ) ) ;
#207 = SECURITY_CLASSIFICATION ( '', '', #20 ) ;
#208 = VERTEX_POINT ( 'NONE', #215 ) ;
#209 = CARTESIAN_POINT ( 'NONE',  ( 0.000000000000000000, 0.000000000000000000, 30.00000000000000000 ) ) ;
#210 = CARTESIAN_POINT ( 'NONE',  ( 0.000000000000000000, 0.000000000000000000, 30.00000000000000000 ) ) ;
#211 = DIRECTION ( 'NONE',  ( -1.000000000000000000, 0.000000000000000000, 0.000000000000000000 ) ) ;
#212 = CIRCLE ( 'NONE', #255, 20.00000000000000000 ) ;
#213 = ORIENTED_EDGE ( 'NONE', *, *, #183, .T. ) ;
#214 = CARTESIAN_POINT ( 'NONE',  ( 0.000000000000000000, 0.000000000000000000, 57.50000000000000000 ) ) ;
#215 = CARTESIAN_POINT ( 'NONE',  ( 5.000000000000000000, 6.123233995736766282E-16, 0.000000000000000000 ) ) ;
#216 = AXIS2_PLACEMENT_3D ( 'NONE', #127, #313, #39 ) ;
#217 = DESIGN_CONTEXT ( 'detailed design', #55, 'design' ) ;
#218 = CARTESIAN_POINT ( 'NONE',  ( 0.000000000000000000, 0.000000000000000000, 57.99999999999999289 ) ) ;
#219 = AXIS2_PLACEMENT_3D ( 'NONE', #253, #79, #282 ) ;
#220 = PERSON_AND_ORGANIZATION ( #54, #61 ) ;
#221 = CIRCLE ( 'NONE', #261, 20.00000000000000000 ) ;
#222 = ORIENTED_EDGE ( 'NONE', *, *, #141, .T. ) ;
#223 = AXIS2_PLACEMENT_3D ( 'NONE', #343, #13, #336 ) ;
#224 = EDGE_CURVE ( 'NONE', #251, #140, #44, .T. ) ;
#225 = DIRECTION ( 'NONE',  ( 1.000000000000000000, 0.000000000000000000, 0.000000000000000000 ) ) ;
#226 = EDGE_LOOP ( 'NONE', ( #240, #182 ) ) ;
#227 = CARTESIAN_POINT ( 'NONE',  ( 0.000000000000000000, 0.000000000000000000, 30.00000000000000000 ) ) ;
#228 = AXIS2_PLACEMENT_3D ( 'NONE', #110, #186, #192 ) ;
#229 = APPLICATION_PROTOCOL_DEFINITION ( 'international standard', 'config_control_design', 1994, #55 ) ;
#230 = PERSON_AND_ORGANIZATION ( #54, #61 ) ;
#231 = EDGE_LOOP ( 'NONE', ( #134, #17, #197, #189 ) ) ;
#232 = CARTESIAN_POINT ( 'NONE',  ( 0.000000000000000000, 0.000000000000000000, 57.99999999999999289 ) ) ;
#233 = DIRECTION ( 'NONE',  ( 1.000000000000000000, 0.000000000000000000, -0.000000000000000000 ) ) ;
#234 = CIRCLE ( 'NONE', #219, 5.000000000000000000 ) ;
#235 = ORIENTED_EDGE ( 'NONE', *, *, #146, .T. ) ;
#236 = LINE ( 'NONE', #184, #157 ) ;
#237 = DIRECTION ( 'NONE',  ( 0.000000000000000000, 0.000000000000000000, 1.000000000000000000 ) ) ;
#238 = CIRCLE ( 'NONE', #264, 5.000000000000000000 ) ;
#239 = EDGE_CURVE ( 'NONE', #355, #51, #21, .T. ) ;
#240 = ORIENTED_EDGE ( 'NONE', *, *, #306, .F. ) ;
#241 = PLANE ( 'NONE',  #137 ) ;
#242 = APPROVAL ( #92, 'NON SPECIFICATO' ) ;
#243 = DIRECTION ( 'NONE',  ( 1.000000000000000000, 0.000000000000000000, 0.000000000000000000 ) ) ;
#244 = ADVANCED_FACE ( 'NONE', ( #22 ), #169, .F. ) ;
#245 = DIRECTION ( 'NONE',  ( -1.000000000000000000, 0.000000000000000000, 0.000000000000000000 ) ) ;
#246 = DATE_AND_TIME ( #338, #176 ) ;
#247 = EDGE_CURVE ( 'NONE', #270, #7, #148, .T. ) ;
#248 = EDGE_LOOP ( 'NONE', ( #260, #68 ) ) ;
#249 = CC_DESIGN_APPROVAL ( #242, ( #207 ) ) ;
#250 = LOCAL_TIME ( 15, 0, 41.00000000000000000, #259 ) ;
#251 = VERTEX_POINT ( 'NONE', #112 ) ;
#252 = CONICAL_SURFACE ( 'NONE', #216, 4.500000000000003553, 0.7853981633974509435 ) ;
#253 = CARTESIAN_POINT ( 'NONE',  ( 0.000000000000000000, 0.000000000000000000, 57.50000000000000000 ) ) ;
#254 = MANIFOLD_SOLID_BREP ( 'Taglio-Estrusione1', #311 ) ;
#255 = AXIS2_PLACEMENT_3D ( 'NONE', #180, #35, #99 ) ;
#256 = CARTESIAN_POINT ( 'NONE',  ( 0.000000000000000000, 0.000000000000000000, 8.000000000000000000 ) ) ;
#257 = CALENDAR_DATE ( 2022, 10, 3 ) ;
#258 = MECHANICAL_CONTEXT ( 'NONE', #288, 'mechanical' ) ;
#259 = COORDINATED_UNIVERSAL_TIME_OFFSET ( 1, 0, .AHEAD. ) ;
#260 = ORIENTED_EDGE ( 'NONE', *, *, #43, .F. ) ;
#261 = AXIS2_PLACEMENT_3D ( 'NONE', #155, #237, #243 ) ;
#262 = DATE_TIME_ROLE ( 'creation_date' ) ;
#263 = PERSON_AND_ORGANIZATION_ROLE ( 'classification_officer' ) ;
#264 = AXIS2_PLACEMENT_3D ( 'NONE', #349, #145, #168 ) ;
#265 = LINE ( 'NONE', #272, #32 ) ;
#266 = EDGE_LOOP ( 'NONE', ( #350, #18, #213, #291 ) ) ;
#267 = CARTESIAN_POINT ( 'NONE',  ( 4.500000000000003553, 5.817072295949930384E-16, 57.99999999999999289 ) ) ;
#268 = CARTESIAN_POINT ( 'NONE',  ( 5.000000000000000000, 6.123233995736766282E-16, 57.99999999999999289 ) ) ;
#269 = COORDINATED_UNIVERSAL_TIME_OFFSET ( 1, 0, .AHEAD. ) ;
#270 = VERTEX_POINT ( 'NONE', #6 ) ;
#271 = ADVANCED_FACE ( 'NONE', ( #314 ), #91, .T. ) ;
#272 = CARTESIAN_POINT ( 'NONE',  ( 4.500000000000003553, 5.510910596163094486E-16, 57.99999999999999289 ) ) ;
#273 = CARTESIAN_POINT ( 'NONE',  ( -4.500000000000003553, 0.000000000000000000, 57.99999999999999289 ) ) ;
#274 = VECTOR ( 'NONE', #357, 1000.000000000000114 ) ;
#275 = DIRECTION ( 'NONE',  ( 0.000000000000000000, 0.000000000000000000, 1.000000000000000000 ) ) ;
#276 = DIRECTION ( 'NONE',  ( 0.000000000000000000, 0.000000000000000000, -1.000000000000000000 ) ) ;
#277 = CARTESIAN_POINT ( 'NONE',  ( 0.000000000000000000, 0.000000000000000000, 57.99999999999999289 ) ) ;
#278 = PERSON_AND_ORGANIZATION ( #54, #61 ) ;
#279 = EDGE_LOOP ( 'NONE', ( #300, #373, #222, #106 ) ) ;
#280 = ORIENTED_EDGE ( 'NONE', *, *, #371, .T. ) ;
#281 = VERTEX_POINT ( 'NONE', #283 ) ;
#282 = DIRECTION ( 'NONE',  ( 1.000000000000000000, 0.000000000000000000, 0.000000000000000000 ) ) ;
#283 = CARTESIAN_POINT ( 'NONE',  ( -5.000000000000000000, 0.000000000000000000, 0.000000000000000000 ) ) ;
#284 = APPROVAL_PERSON_ORGANIZATION ( #361, #34, #198 ) ;
#285 = CIRCLE ( 'NONE', #132, 5.000000000000000000 ) ;
#286 = DIRECTION ( 'NONE',  ( 1.000000000000000000, 0.000000000000000000, 0.000000000000000000 ) ) ;
#287 = ORIENTED_EDGE ( 'NONE', *, *, #160, .F. ) ;
#288 = APPLICATION_CONTEXT ( 'configuration controlled 3d designs of mechanical parts and assemblies' ) ;
#289 = APPROVAL_STATUS ( 'not_yet_approved' ) ;
#290 = FACE_OUTER_BOUND ( 'NONE', #166, .T. ) ;
#291 = ORIENTED_EDGE ( 'NONE', *, *, #36, .F. ) ;
#292 = VERTEX_POINT ( 'NONE', #12 ) ;
#293 = CARTESIAN_POINT ( 'NONE',  ( 0.000000000000000000, 0.000000000000000000, 0.000000000000000000 ) ) ;
#294 = AXIS2_PLACEMENT_3D ( 'NONE', #214, #276, #1 ) ;
#295 = COORDINATED_UNIVERSAL_TIME_OFFSET ( 1, 0, .AHEAD. ) ;
#296 = LINE ( 'NONE', #59, #40 ) ;
#297 = EDGE_LOOP ( 'NONE', ( #86, #171 ) ) ;
#298 = DIRECTION ( 'NONE',  ( 0.000000000000000000, 0.000000000000000000, 1.000000000000000000 ) ) ;
#299 = DIRECTION ( 'NONE',  ( -0.000000000000000000, -0.000000000000000000, -1.000000000000000000 ) ) ;
#300 = ORIENTED_EDGE ( 'NONE', *, *, #146, .F. ) ;
#301 = CARTESIAN_POINT ( 'NONE',  ( 20.00000000000000000, 2.449293598294706513E-15, 0.000000000000000000 ) ) ;
#302 = ORIENTED_EDGE ( 'NONE', *, *, #46, .T. ) ;
#303 = ADVANCED_FACE ( 'NONE', ( #142 ), #372, .T. ) ;
#304 = DIRECTION ( 'NONE',  ( -0.000000000000000000, -0.000000000000000000, -1.000000000000000000 ) ) ;
#305 = LOCAL_TIME ( 15, 0, 41.00000000000000000, #295 ) ;
#306 = EDGE_CURVE ( 'NONE', #116, #292, #344, .T. ) ;
#307 = DIRECTION ( 'NONE',  ( 0.000000000000000000, 0.000000000000000000, -1.000000000000000000 ) ) ;
#308 = ORIENTED_EDGE ( 'NONE', *, *, #173, .F. ) ;
#309 = AXIS2_PLACEMENT_3D ( 'NONE', #2, #27, #149 ) ;
#310 = FACE_OUTER_BOUND ( 'NONE', #231, .T. ) ;
#311 = CLOSED_SHELL ( 'NONE', ( #119, #303, #67, #179, #271, #29, #122, #382, #328, #358, #244, #380 ) ) ;
#312 = ORIENTED_EDGE ( 'NONE', *, *, #95, .F. ) ;
#313 = DIRECTION ( 'NONE',  ( 0.000000000000000000, 0.000000000000000000, -1.000000000000000000 ) ) ;
#314 = FACE_OUTER_BOUND ( 'NONE', #195, .T. ) ;
#315 = DIRECTION ( 'NONE',  ( -1.000000000000000000, 0.000000000000000000, 0.000000000000000000 ) ) ;
#316 = CARTESIAN_POINT ( 'NONE',  ( 0.000000000000000000, 0.000000000000000000, 30.00000000000000000 ) ) ;
#317 = CALENDAR_DATE ( 2022, 10, 3 ) ;
#318 = VECTOR ( 'NONE', #374, 1000.000000000000000 ) ;
#319 = EDGE_LOOP ( 'NONE', ( #312, #202, #378, #77 ) ) ;
#320 = PERSON_AND_ORGANIZATION_ROLE ( 'design_owner' ) ;
#321 = CARTESIAN_POINT ( 'NONE',  ( 0.000000000000000000, 0.000000000000000000, 57.99999999999999289 ) ) ;
#322 = FACE_OUTER_BOUND ( 'NONE', #144, .T. ) ;
#323 = DIRECTION ( 'NONE',  ( 0.000000000000000000, 0.000000000000000000, 1.000000000000000000 ) ) ;
#324 = AXIS2_PLACEMENT_3D ( 'NONE', #71, #275, #366 ) ;
#325 = APPROVAL_DATE_TIME ( #246, #345 ) ;
#326 = CARTESIAN_POINT ( 'NONE',  ( -5.000000000000000000, 0.000000000000000000, 57.99999999999999289 ) ) ;
#327 = VECTOR ( 'NONE', #90, 1000.000000000000000 ) ;
#328 = ADVANCED_FACE ( 'NONE', ( #96 ), #5, .T. ) ;
#329 = EDGE_LOOP ( 'NONE', ( #87, #235, #287, #370 ) ) ;
#330 = ORIENTED_EDGE ( 'NONE', *, *, #239, .T. ) ;
#331 = CARTESIAN_POINT ( 'NONE',  ( -5.000000000000000000, 0.000000000000000000, 57.50000000000000000 ) ) ;
#332 = APPROVAL_PERSON_ORGANIZATION ( #107, #345, #114 ) ;
#333 = CIRCLE ( 'NONE', #324, 5.000000000000000000 ) ;
#334 = DIRECTION ( 'NONE',  ( -1.000000000000000000, 0.000000000000000000, 0.000000000000000000 ) ) ;
#335 = PRODUCT_DEFINITION_FORMATION_WITH_SPECIFIED_SOURCE ( 'TUTTO', '', #19, .NOT_KNOWN. ) ;
#336 = DIRECTION ( 'NONE',  ( 1.000000000000000000, 0.000000000000000000, 0.000000000000000000 ) ) ;
#337 = EDGE_CURVE ( 'NONE', #251, #281, #236, .T. ) ;
#338 = CALENDAR_DATE ( 2022, 10, 3 ) ;
#339 = CIRCLE ( 'NONE', #191, 4.500000000000003553 ) ;
#340 = PERSON_AND_ORGANIZATION ( #54, #61 ) ;
#341 = CIRCLE ( 'NONE', #294, 5.000000000000000000 ) ;
#342 = EDGE_LOOP ( 'NONE', ( #330, #302 ) ) ;
#343 = CARTESIAN_POINT ( 'NONE',  ( 0.000000000000000000, 0.000000000000000000, 30.00000000000000000 ) ) ;
#344 = CIRCLE ( 'NONE', #172, 5.000000000000000000 ) ;
#345 = APPROVAL ( #289, 'NON SPECIFICATO' ) ;
#346 = DIRECTION ( 'NONE',  ( 0.000000000000000000, 0.000000000000000000, 1.000000000000000000 ) ) ;
#347 = DIRECTION ( 'NONE',  ( -1.000000000000000000, 0.000000000000000000, 0.000000000000000000 ) ) ;
#348 = CYLINDRICAL_SURFACE ( 'NONE', #375, 20.00000000000000000 ) ;
#349 = CARTESIAN_POINT ( 'NONE',  ( 0.000000000000000000, 0.000000000000000000, 0.000000000000000000 ) ) ;
#350 = ORIENTED_EDGE ( 'NONE', *, *, #160, .T. ) ;
#351 = AXIS2_PLACEMENT_3D ( 'NONE', #209, #298, #233 ) ;
#352 = PLANE ( 'NONE',  #351 ) ;
#353 = CALENDAR_DATE ( 2022, 10, 3 ) ;
#354 = CYLINDRICAL_SURFACE ( 'NONE', #309, 5.000000000000000000 ) ;
#355 = VERTEX_POINT ( 'NONE', #47 ) ;
#356 = CARTESIAN_POINT ( 'NONE',  ( -20.00000000000000000, 0.000000000000000000, 30.00000000000000000 ) ) ;
#357 = DIRECTION ( 'NONE',  ( -0.7071067811865493491, 0.000000000000000000, -0.7071067811865456854 ) ) ;
#358 = ADVANCED_FACE ( 'NONE', ( #80 ), #252, .T. ) ;
#359 = CC_DESIGN_PERSON_AND_ORGANIZATION_ASSIGNMENT ( #220, #320, ( #19 ) ) ;
#360 = DIRECTION ( 'NONE',  ( -1.000000000000000000, 0.000000000000000000, 0.000000000000000000 ) ) ;
#361 = PERSON_AND_ORGANIZATION ( #54, #61 ) ;
#362 = ORIENTED_EDGE ( 'NONE', *, *, #130, .T. ) ;
#363 = DIRECTION ( 'NONE',  ( 0.000000000000000000, 0.000000000000000000, -1.000000000000000000 ) ) ;
#364 = AXIS2_PLACEMENT_3D ( 'NONE', #316, #81, #50 ) ;
#365 = PLANE ( 'NONE',  #185 ) ;
#366 = DIRECTION ( 'NONE',  ( 1.000000000000000000, 0.000000000000000000, 0.000000000000000000 ) ) ;
#367 = AXIS2_PLACEMENT_3D ( 'NONE', #321, #101, #245 ) ;
#368 = LINE ( 'NONE', #326, #327 ) ;
#369 = CARTESIAN_POINT ( 'NONE',  ( 0.000000000000000000, 0.000000000000000000, 57.99999999999999289 ) ) ;
#370 = ORIENTED_EDGE ( 'NONE', *, *, #141, .F. ) ;
#371 = EDGE_CURVE ( 'NONE', #45, #102, #234, .T. ) ;
#372 = CONICAL_SURFACE ( 'NONE', #100, 4.500000000000003553, 0.7853981633974509435 ) ;
#373 = ORIENTED_EDGE ( 'NONE', *, *, #239, .F. ) ;
#374 = DIRECTION ( 'NONE',  ( -0.000000000000000000, -0.000000000000000000, -1.000000000000000000 ) ) ;
#375 = AXIS2_PLACEMENT_3D ( 'NONE', #210, #304, #334 ) ;
#376 = LOCAL_TIME ( 15, 0, 41.00000000000000000, #165 ) ;
#377 = FACE_OUTER_BOUND ( 'NONE', #97, .T. ) ;
#378 = ORIENTED_EDGE ( 'NONE', *, *, #337, .T. ) ;
#379 =( GEOMETRIC_REPRESENTATION_CONTEXT ( 3 ) GLOBAL_UNCERTAINTY_ASSIGNED_CONTEXT ( ( #188 ) ) GLOBAL_UNIT_ASSIGNED_CONTEXT ( ( #196, #14, #164 ) ) REPRESENTATION_CONTEXT ( 'NONE', 'WORKASPACE' ) );
#380 = ADVANCED_FACE ( 'NONE', ( #377 ), #365, .T. ) ;
#381 = LINE ( 'NONE', #28, #62 ) ;
#382 = ADVANCED_FACE ( 'NONE', ( #322 ), #15, .T. ) ;
#383 = DIRECTION ( 'NONE',  ( 0.000000000000000000, 0.000000000000000000, -1.000000000000000000 ) ) ;
#384 = ORIENTED_EDGE ( 'NONE', *, *, #204, .T. ) ;
#385 = CARTESIAN_POINT ( 'NONE',  ( -20.00000000000000000, 0.000000000000000000, 0.000000000000000000 ) ) ;
ENDSEC;
END-ISO-10303-21;
