ISO-10303-21;
HEADER;
FILE_DESCRIPTION (( 'STEP AP203' ),
    '1' );
FILE_NAME ('5SU1052_ Anti vibration mount.STEP',
    '2022-03-10T14:01:23',
    ( '' ),
    ( '' ),
    'SwSTEP 2.0',
    'SolidWorks 2018',
    '' );
FILE_SCHEMA (( 'CONFIG_CONTROL_DESIGN' ));
ENDSEC;

DATA;
#1 = ORIENTED_EDGE ( 'NONE', *, *, #116, .T. ) ;
#2 = ORGANIZATION ( 'NON SPECIFICATO', 'NON SPECIFICATO', '' ) ;
#3 = EDGE_CURVE ( 'NONE', #31, #87, #212, .T. ) ;
#4 = CC_DESIGN_DATE_AND_TIME_ASSIGNMENT ( #89, #112, ( #330 ) ) ;
#5 = CARTESIAN_POINT ( 'NONE',  ( 0.000000000000000000, 0.000000000000000000, 40.00000000000000000 ) ) ;
#6 = AXIS2_PLACEMENT_3D ( 'NONE', #163, #226, #96 ) ;
#7 = DESIGN_CONTEXT ( 'detailed design', #350, 'design' ) ;
#8 = DIRECTION ( 'NONE',  ( 0.000000000000000000, 0.000000000000000000, 1.000000000000000000 ) ) ;
#9 = DIRECTION ( 'NONE',  ( 1.000000000000000000, 0.000000000000000000, 0.000000000000000000 ) ) ;
#10 = DIRECTION ( 'NONE',  ( 1.000000000000000000, 0.000000000000000000, 0.000000000000000000 ) ) ;
#11 = CC_DESIGN_APPROVAL ( #288, ( #297 ) ) ;
#12 = CARTESIAN_POINT ( 'NONE',  ( 0.000000000000000000, 0.000000000000000000, 0.000000000000000000 ) ) ;
#13 = AXIS2_PLACEMENT_3D ( 'NONE', #131, #22, #295 ) ;
#14 = DIRECTION ( 'NONE',  ( -1.000000000000000000, 0.000000000000000000, 0.000000000000000000 ) ) ;
#15 = ORIENTED_EDGE ( 'NONE', *, *, #372, .T. ) ;
#16 = COORDINATED_UNIVERSAL_TIME_OFFSET ( 1, 0, .AHEAD. ) ;
#17 = ORIENTED_EDGE ( 'NONE', *, *, #206, .T. ) ;
#18 = DIRECTION ( 'NONE',  ( -1.000000000000000000, 0.000000000000000000, 0.000000000000000000 ) ) ;
#19 =( NAMED_UNIT ( * ) PLANE_ANGLE_UNIT ( ) SI_UNIT ( $, .RADIAN. ) );
#20 = CARTESIAN_POINT ( 'NONE',  ( -8.000000000000000000, 0.000000000000000000, 8.000000000000000000 ) ) ;
#21 = ADVANCED_FACE ( 'NONE', ( #48 ), #278, .T. ) ;
#22 = DIRECTION ( 'NONE',  ( 0.000000000000000000, 0.000000000000000000, 1.000000000000000000 ) ) ;
#23 = DIRECTION ( 'NONE',  ( 0.000000000000000000, 0.000000000000000000, -1.000000000000000000 ) ) ;
#24 = ORIENTED_EDGE ( 'NONE', *, *, #275, .F. ) ;
#25 = APPROVAL_ROLE ( '' ) ;
#26 = CC_DESIGN_APPROVAL ( #365, ( #330 ) ) ;
#27 = VERTEX_POINT ( 'NONE', #313 ) ;
#28 = ORIENTED_EDGE ( 'NONE', *, *, #206, .F. ) ;
#29 = AXIS2_PLACEMENT_3D ( 'NONE', #312, #281, #150 ) ;
#30 = CIRCLE ( 'NONE', #195, 8.000000000000000000 ) ;
#31 = VERTEX_POINT ( 'NONE', #250 ) ;
#32 = ORIENTED_EDGE ( 'NONE', *, *, #111, .F. ) ;
#33 = DATE_AND_TIME ( #192, #239 ) ;
#34 = FACE_OUTER_BOUND ( 'NONE', #246, .T. ) ;
#35 = EDGE_CURVE ( 'NONE', #27, #114, #357, .T. ) ;
#36 = DIRECTION ( 'NONE',  ( 0.000000000000000000, 0.000000000000000000, 1.000000000000000000 ) ) ;
#37 = DIRECTION ( 'NONE',  ( 0.000000000000000000, 0.000000000000000000, 1.000000000000000000 ) ) ;
#38 = ORIENTED_EDGE ( 'NONE', *, *, #180, .F. ) ;
#39 = EDGE_CURVE ( 'NONE', #251, #161, #177, .T. ) ;
#40 = ORIENTED_EDGE ( 'NONE', *, *, #3, .T. ) ;
#41 = APPROVAL_PERSON_ORGANIZATION ( #255, #365, #25 ) ;
#42 = CARTESIAN_POINT ( 'NONE',  ( 0.000000000000000000, 0.000000000000000000, 90.00000000000000000 ) ) ;
#43 = ORIENTED_EDGE ( 'NONE', *, *, #214, .F. ) ;
#44 = CARTESIAN_POINT ( 'NONE',  ( 50.00000000000000000, 6.123233995736766085E-15, 40.00000000000000000 ) ) ;
#45 = EDGE_CURVE ( 'NONE', #203, #202, #138, .T. ) ;
#46 = PERSON ( 'NON SPECIFICATO', 'NON SPECIFICATO', 'NON SPECIFICATO', ('NON SPECIFICATO'), ('NON SPECIFICATO'), ('NON SPECIFICATO') ) ;
#47 = CARTESIAN_POINT ( 'NONE',  ( -50.00000000000000000, 0.000000000000000000, 0.000000000000000000 ) ) ;
#48 = FACE_OUTER_BOUND ( 'NONE', #59, .T. ) ;
#49 = DIRECTION ( 'NONE',  ( 1.000000000000000000, 0.000000000000000000, 0.000000000000000000 ) ) ;
#50 = ADVANCED_BREP_SHAPE_REPRESENTATION ( '5SU1052_ Anti vibration mount', ( #143, #164 ), #314 ) ;
#51 = DIRECTION ( 'NONE',  ( -0.000000000000000000, -0.000000000000000000, -1.000000000000000000 ) ) ;
#52 = ADVANCED_FACE ( 'NONE', ( #186 ), #158, .F. ) ;
#53 = ORIENTED_EDGE ( 'NONE', *, *, #35, .T. ) ;
#54 = APPROVAL_PERSON_ORGANIZATION ( #284, #115, #307 ) ;
#55 = ORIENTED_EDGE ( 'NONE', *, *, #125, .F. ) ;
#56 = CC_DESIGN_PERSON_AND_ORGANIZATION_ASSIGNMENT ( #225, #211, ( #205 ) ) ;
#57 = EDGE_CURVE ( 'NONE', #87, #146, #61, .T. ) ;
#58 = ORIENTED_EDGE ( 'NONE', *, *, #233, .T. ) ;
#59 = EDGE_LOOP ( 'NONE', ( #40, #142 ) ) ;
#60 = CYLINDRICAL_SURFACE ( 'NONE', #63, 8.000000000000000000 ) ;
#61 = LINE ( 'NONE', #280, #292 ) ;
#62 = CYLINDRICAL_SURFACE ( 'NONE', #86, 50.00000000000000000 ) ;
#63 = AXIS2_PLACEMENT_3D ( 'NONE', #263, #101, #344 ) ;
#64 = CARTESIAN_POINT ( 'NONE',  ( -8.000000000000000000, 0.000000000000000000, 8.000000000000000000 ) ) ;
#65 = CARTESIAN_POINT ( 'NONE',  ( 0.000000000000000000, 0.000000000000000000, 90.00000000000000000 ) ) ;
#66 = EDGE_LOOP ( 'NONE', ( #169, #43, #181, #15 ) ) ;
#67 = CC_DESIGN_PERSON_AND_ORGANIZATION_ASSIGNMENT ( #72, #385, ( #297 ) ) ;
#68 = DIRECTION ( 'NONE',  ( -0.000000000000000000, -0.000000000000000000, -1.000000000000000000 ) ) ;
#69 = AXIS2_PLACEMENT_3D ( 'NONE', #270, #232, #102 ) ;
#70 = DIRECTION ( 'NONE',  ( -0.000000000000000000, -0.000000000000000000, -1.000000000000000000 ) ) ;
#71 = ORIENTED_EDGE ( 'NONE', *, *, #57, .T. ) ;
#72 = PERSON_AND_ORGANIZATION ( #46, #2 ) ;
#73 = DIRECTION ( 'NONE',  ( -1.000000000000000000, 0.000000000000000000, -0.000000000000000000 ) ) ;
#74 = ORIENTED_EDGE ( 'NONE', *, *, #319, .F. ) ;
#75 = ADVANCED_FACE ( 'NONE', ( #373, #200 ), #145, .T. ) ;
#76 = CARTESIAN_POINT ( 'NONE',  ( 0.000000000000000000, 0.000000000000000000, 40.00000000000000000 ) ) ;
#77 = APPLICATION_CONTEXT ( 'configuration controlled 3d designs of mechanical parts and assemblies' ) ;
#78 = DIRECTION ( 'NONE',  ( 0.000000000000000000, 0.000000000000000000, -1.000000000000000000 ) ) ;
#79 = ADVANCED_FACE ( 'NONE', ( #334 ), #266, .T. ) ;
#80 = VERTEX_POINT ( 'NONE', #127 ) ;
#81 = PLANE ( 'NONE',  #252 ) ;
#82 = AXIS2_PLACEMENT_3D ( 'NONE', #5, #36, #287 ) ;
#83 = FACE_OUTER_BOUND ( 'NONE', #331, .T. ) ;
#84 = EDGE_LOOP ( 'NONE', ( #268, #380 ) ) ;
#85 = FACE_OUTER_BOUND ( 'NONE', #358, .T. ) ;
#86 = AXIS2_PLACEMENT_3D ( 'NONE', #76, #323, #134 ) ;
#87 = VERTEX_POINT ( 'NONE', #157 ) ;
#88 = PRODUCT_RELATED_PRODUCT_CATEGORY ( 'detail', '', ( #196 ) ) ;
#89 = DATE_AND_TIME ( #98, #247 ) ;
#90 = LINE ( 'NONE', #191, #328 ) ;
#91 = PRODUCT_DEFINITION_SHAPE ( 'NONE', 'NONE',  #330 ) ;
#92 = DIRECTION ( 'NONE',  ( 1.000000000000000000, 0.000000000000000000, -0.000000000000000000 ) ) ;
#93 = FACE_BOUND ( 'NONE', #362, .T. ) ;
#94 = CC_DESIGN_PERSON_AND_ORGANIZATION_ASSIGNMENT ( #118, #110, ( #297 ) ) ;
#95 = CARTESIAN_POINT ( 'NONE',  ( 0.000000000000000000, 0.000000000000000000, 8.000000000000000000 ) ) ;
#96 = DIRECTION ( 'NONE',  ( -1.000000000000000000, 0.000000000000000000, 0.000000000000000000 ) ) ;
#97 = ORIENTED_EDGE ( 'NONE', *, *, #220, .F. ) ;
#98 = CALENDAR_DATE ( 2022, 10, 3 ) ;
#99 = ORIENTED_EDGE ( 'NONE', *, *, #214, .T. ) ;
#100 = CONICAL_SURFACE ( 'NONE', #69, 7.500000000000007105, 0.7853981633974415066 ) ;
#101 = DIRECTION ( 'NONE',  ( -0.000000000000000000, -0.000000000000000000, -1.000000000000000000 ) ) ;
#102 = DIRECTION ( 'NONE',  ( -1.000000000000000000, 0.000000000000000000, 0.000000000000000000 ) ) ;
#103 = CARTESIAN_POINT ( 'NONE',  ( 0.000000000000000000, 0.000000000000000000, 90.00000000000000000 ) ) ;
#104 = CARTESIAN_POINT ( 'NONE',  ( 0.000000000000000000, 0.000000000000000000, 40.00000000000000000 ) ) ;
#105 = DIRECTION ( 'NONE',  ( 0.000000000000000000, 0.000000000000000000, -1.000000000000000000 ) ) ;
#106 = ORIENTED_EDGE ( 'NONE', *, *, #3, .F. ) ;
#107 = DIRECTION ( 'NONE',  ( 1.000000000000000000, 0.000000000000000000, 0.000000000000000000 ) ) ;
#108 = EDGE_LOOP ( 'NONE', ( #32, #170, #303, #283 ) ) ;
#109 = CALENDAR_DATE ( 2022, 10, 3 ) ;
#110 = PERSON_AND_ORGANIZATION_ROLE ( 'design_supplier' ) ;
#111 = EDGE_CURVE ( 'NONE', #114, #161, #363, .T. ) ;
#112 = DATE_TIME_ROLE ( 'creation_date' ) ;
#113 = VECTOR ( 'NONE', #364, 1000.000000000000000 ) ;
#114 = VERTEX_POINT ( 'NONE', #338 ) ;
#115 = APPROVAL ( #176, 'NON SPECIFICATO' ) ;
#116 = EDGE_CURVE ( 'NONE', #335, #240, #274, .T. ) ;
#117 = VERTEX_POINT ( 'NONE', #230 ) ;
#118 = PERSON_AND_ORGANIZATION ( #46, #2 ) ;
#119 = CC_DESIGN_PERSON_AND_ORGANIZATION_ASSIGNMENT ( #128, #204, ( #196 ) ) ;
#120 = DIRECTION ( 'NONE',  ( 0.000000000000000000, 0.000000000000000000, -1.000000000000000000 ) ) ;
#121 = LOCAL_TIME ( 15, 1, 23.00000000000000000, #16 ) ;
#122 = ORIENTED_EDGE ( 'NONE', *, *, #351, .F. ) ;
#123 = ADVANCED_FACE ( 'NONE', ( #85 ), #60, .T. ) ;
#124 = DIRECTION ( 'NONE',  ( -1.000000000000000000, 0.000000000000000000, 0.000000000000000000 ) ) ;
#125 = EDGE_CURVE ( 'NONE', #146, #117, #90, .T. ) ;
#126 = DIRECTION ( 'NONE',  ( 0.000000000000000000, 0.000000000000000000, -1.000000000000000000 ) ) ;
#127 = CARTESIAN_POINT ( 'NONE',  ( -8.000000000000000000, 0.000000000000000000, 40.00000000000000000 ) ) ;
#128 = PERSON_AND_ORGANIZATION ( #46, #2 ) ;
#129 = CARTESIAN_POINT ( 'NONE',  ( 8.000000000000000000, 9.797174393178825657E-16, 8.000000000000000000 ) ) ;
#130 = CYLINDRICAL_SURFACE ( 'NONE', #216, 8.000000000000000000 ) ;
#131 = CARTESIAN_POINT ( 'NONE',  ( 0.000000000000000000, 0.000000000000000000, 90.00000000000000000 ) ) ;
#132 = DIRECTION ( 'NONE',  ( 1.000000000000000000, 0.000000000000000000, 0.000000000000000000 ) ) ;
#133 = APPLICATION_PROTOCOL_DEFINITION ( 'international standard', 'config_control_design', 1994, #77 ) ;
#134 = DIRECTION ( 'NONE',  ( -1.000000000000000000, 0.000000000000000000, 0.000000000000000000 ) ) ;
#135 = EDGE_CURVE ( 'NONE', #285, #146, #376, .T. ) ;
#136 = SECURITY_CLASSIFICATION_LEVEL ( 'unclassified' ) ;
#137 = CC_DESIGN_PERSON_AND_ORGANIZATION_ASSIGNMENT ( #172, #236, ( #330 ) ) ;
#138 = LINE ( 'NONE', #64, #113 ) ;
#139 = APPROVAL_DATE_TIME ( #33, #115 ) ;
#140 = FACE_OUTER_BOUND ( 'NONE', #66, .T. ) ;
#141 = AXIS2_PLACEMENT_3D ( 'NONE', #228, #126, #317 ) ;
#142 = ORIENTED_EDGE ( 'NONE', *, *, #319, .T. ) ;
#143 = MANIFOLD_SOLID_BREP ( 'Taglio-Estrusione1', #294 ) ;
#144 = EDGE_CURVE ( 'NONE', #240, #202, #174, .T. ) ;
#145 = PLANE ( 'NONE',  #82 ) ;
#146 = VERTEX_POINT ( 'NONE', #318 ) ;
#147 = LOCAL_TIME ( 15, 1, 23.00000000000000000, #276 ) ;
#148 = FACE_OUTER_BOUND ( 'NONE', #308, .T. ) ;
#149 = DIRECTION ( 'NONE',  ( 0.000000000000000000, 0.000000000000000000, 1.000000000000000000 ) ) ;
#150 = DIRECTION ( 'NONE',  ( -1.000000000000000000, 0.000000000000000000, 0.000000000000000000 ) ) ;
#151 = EDGE_LOOP ( 'NONE', ( #99, #315 ) ) ;
#152 = APPROVAL_DATE_TIME ( #221, #288 ) ;
#153 = EDGE_LOOP ( 'NONE', ( #38, #1, #249, #306 ) ) ;
#154 = EDGE_CURVE ( 'NONE', #146, #285, #244, .T. ) ;
#155 = DIRECTION ( 'NONE',  ( 0.000000000000000000, 0.000000000000000000, 1.000000000000000000 ) ) ;
#156 = ADVANCED_FACE ( 'NONE', ( #140 ), #130, .F. ) ;
#157 = CARTESIAN_POINT ( 'NONE',  ( 7.500000000000007105, 9.491012693391991731E-16, 90.00000000000000000 ) ) ;
#158 = CYLINDRICAL_SURFACE ( 'NONE', #29, 8.000000000000000000 ) ;
#159 = CARTESIAN_POINT ( 'NONE',  ( 0.000000000000000000, 0.000000000000000000, 89.50000000000000000 ) ) ;
#160 = CIRCLE ( 'NONE', #237, 8.000000000000000000 ) ;
#161 = VERTEX_POINT ( 'NONE', #261 ) ;
#162 = CARTESIAN_POINT ( 'NONE',  ( 0.000000000000000000, 0.000000000000000000, 0.000000000000000000 ) ) ;
#163 = CARTESIAN_POINT ( 'NONE',  ( 0.000000000000000000, 0.000000000000000000, 8.000000000000000000 ) ) ;
#164 = AXIS2_PLACEMENT_3D ( 'NONE', #290, #375, #267 ) ;
#165 = DIRECTION ( 'NONE',  ( -0.000000000000000000, -0.000000000000000000, -1.000000000000000000 ) ) ;
#166 = CARTESIAN_POINT ( 'NONE',  ( -50.00000000000000000, 0.000000000000000000, 40.00000000000000000 ) ) ;
#167 = CARTESIAN_POINT ( 'NONE',  ( 0.000000000000000000, 0.000000000000000000, 8.000000000000000000 ) ) ;
#168 = APPROVAL_STATUS ( 'not_yet_approved' ) ;
#169 = ORIENTED_EDGE ( 'NONE', *, *, #116, .F. ) ;
#170 = ORIENTED_EDGE ( 'NONE', *, *, #35, .F. ) ;
#171 = APPLICATION_PROTOCOL_DEFINITION ( 'international standard', 'config_control_design', 1994, #350 ) ;
#172 = PERSON_AND_ORGANIZATION ( #46, #2 ) ;
#173 = AXIS2_PLACEMENT_3D ( 'NONE', #333, #149, #92 ) ;
#174 = CIRCLE ( 'NONE', #311, 8.000000000000000000 ) ;
#175 = DATE_TIME_ROLE ( 'classification_date' ) ;
#176 = APPROVAL_STATUS ( 'not_yet_approved' ) ;
#177 = CIRCLE ( 'NONE', #356, 50.00000000000000000 ) ;
#178 = ORIENTED_EDGE ( 'NONE', *, *, #372, .F. ) ;
#179 = FACE_OUTER_BOUND ( 'NONE', #108, .T. ) ;
#180 = EDGE_CURVE ( 'NONE', #335, #203, #222, .T. ) ;
#181 = ORIENTED_EDGE ( 'NONE', *, *, #45, .T. ) ;
#182 = APPROVAL_PERSON_ORGANIZATION ( #352, #288, #271 ) ;
#183 = ORIENTED_EDGE ( 'NONE', *, *, #220, .T. ) ;
#184 = DIRECTION ( 'NONE',  ( 0.000000000000000000, 0.000000000000000000, 1.000000000000000000 ) ) ;
#185 = AXIS2_PLACEMENT_3D ( 'NONE', #348, #201, #49 ) ;
#186 = FACE_OUTER_BOUND ( 'NONE', #153, .T. ) ;
#187 = EDGE_LOOP ( 'NONE', ( #74, #71, #279, #24 ) ) ;
#188 = AXIS2_PLACEMENT_3D ( 'NONE', #42, #70, #124 ) ;
#189 = CARTESIAN_POINT ( 'NONE',  ( 0.000000000000000000, 0.000000000000000000, 0.000000000000000000 ) ) ;
#190 = DIRECTION ( 'NONE',  ( 0.000000000000000000, 0.000000000000000000, -1.000000000000000000 ) ) ;
#191 = CARTESIAN_POINT ( 'NONE',  ( 8.000000000000000000, 9.797174393178825657E-16, 90.00000000000000000 ) ) ;
#192 = CALENDAR_DATE ( 2022, 10, 3 ) ;
#193 = ORIENTED_EDGE ( 'NONE', *, *, #125, .T. ) ;
#194 = ADVANCED_FACE ( 'NONE', ( #320 ), #342, .T. ) ;
#195 = AXIS2_PLACEMENT_3D ( 'NONE', #167, #23, #234 ) ;
#196 = PRODUCT ( '5SU1052_ Anti vibration mount', '5SU1052_ Anti vibration mount', '', ( #349 ) ) ;
#197 = CARTESIAN_POINT ( 'NONE',  ( 0.000000000000000000, 0.000000000000000000, 8.000000000000000000 ) ) ;
#198 = CARTESIAN_POINT ( 'NONE',  ( 0.000000000000000000, 0.000000000000000000, 0.000000000000000000 ) ) ;
#199 = DIRECTION ( 'NONE',  ( -0.7071067811865426878, 0.000000000000000000, -0.7071067811865524577 ) ) ;
#200 = FACE_OUTER_BOUND ( 'NONE', #310, .T. ) ;
#201 = DIRECTION ( 'NONE',  ( 0.000000000000000000, 0.000000000000000000, 1.000000000000000000 ) ) ;
#202 = VERTEX_POINT ( 'NONE', #374 ) ;
#203 = VERTEX_POINT ( 'NONE', #20 ) ;
#204 = PERSON_AND_ORGANIZATION_ROLE ( 'design_owner' ) ;
#205 = SECURITY_CLASSIFICATION ( '', '', #136 ) ;
#206 = EDGE_CURVE ( 'NONE', #114, #27, #382, .T. ) ;
#207 = COORDINATED_UNIVERSAL_TIME_OFFSET ( 1, 0, .AHEAD. ) ;
#208 = ORIENTED_EDGE ( 'NONE', *, *, #275, .T. ) ;
#209 = ORIENTED_EDGE ( 'NONE', *, *, #135, .T. ) ;
#210 = CC_DESIGN_DATE_AND_TIME_ASSIGNMENT ( #229, #175, ( #205 ) ) ;
#211 = PERSON_AND_ORGANIZATION_ROLE ( 'classification_officer' ) ;
#212 = CIRCLE ( 'NONE', #227, 7.500000000000007105 ) ;
#213 = ORIENTED_EDGE ( 'NONE', *, *, #154, .F. ) ;
#214 = EDGE_CURVE ( 'NONE', #203, #335, #30, .T. ) ;
#215 = VECTOR ( 'NONE', #68, 1000.000000000000000 ) ;
#216 = AXIS2_PLACEMENT_3D ( 'NONE', #197, #282, #18 ) ;
#217 = ORIENTED_EDGE ( 'NONE', *, *, #351, .T. ) ;
#218 = APPROVAL_DATE_TIME ( #316, #365 ) ;
#219 = CIRCLE ( 'NONE', #243, 50.00000000000000000 ) ;
#220 = EDGE_CURVE ( 'NONE', #285, #80, #231, .T. ) ;
#221 = DATE_AND_TIME ( #109, #121 ) ;
#222 = CIRCLE ( 'NONE', #6, 8.000000000000000000 ) ;
#223 = CARTESIAN_POINT ( 'NONE',  ( 0.000000000000000000, 0.000000000000000000, 40.00000000000000000 ) ) ;
#224 = DIRECTION ( 'NONE',  ( 1.000000000000000000, 0.000000000000000000, 0.000000000000000000 ) ) ;
#225 = PERSON_AND_ORGANIZATION ( #46, #2 ) ;
#226 = DIRECTION ( 'NONE',  ( 0.000000000000000000, 0.000000000000000000, -1.000000000000000000 ) ) ;
#227 = AXIS2_PLACEMENT_3D ( 'NONE', #65, #8, #10 ) ;
#228 = CARTESIAN_POINT ( 'NONE',  ( 0.000000000000000000, 0.000000000000000000, 89.50000000000000000 ) ) ;
#229 = DATE_AND_TIME ( #383, #147 ) ;
#230 = CARTESIAN_POINT ( 'NONE',  ( 8.000000000000000000, 9.797174393178825657E-16, 40.00000000000000000 ) ) ;
#231 = LINE ( 'NONE', #298, #296 ) ;
#232 = DIRECTION ( 'NONE',  ( 0.000000000000000000, 0.000000000000000000, -1.000000000000000000 ) ) ;
#233 = EDGE_CURVE ( 'NONE', #117, #80, #305, .T. ) ;
#234 = DIRECTION ( 'NONE',  ( -1.000000000000000000, 0.000000000000000000, 0.000000000000000000 ) ) ;
#235 = CARTESIAN_POINT ( 'NONE',  ( 0.000000000000000000, 0.000000000000000000, 0.000000000000000000 ) ) ;
#236 = PERSON_AND_ORGANIZATION_ROLE ( 'creator' ) ;
#237 = AXIS2_PLACEMENT_3D ( 'NONE', #104, #345, #264 ) ;
#238 = EDGE_LOOP ( 'NONE', ( #55, #326, #183, #384 ) ) ;
#239 = LOCAL_TIME ( 15, 1, 23.00000000000000000, #368 ) ;
#240 = VERTEX_POINT ( 'NONE', #378 ) ;
#241 = CC_DESIGN_SECURITY_CLASSIFICATION ( #205, ( #297 ) ) ;
#242 = UNCERTAINTY_MEASURE_WITH_UNIT (LENGTH_MEASURE( 1.000000000000000082E-05 ), #321, 'distance_accuracy_value', 'NONE');
#243 = AXIS2_PLACEMENT_3D ( 'NONE', #198, #379, #107 ) ;
#244 = CIRCLE ( 'NONE', #141, 8.000000000000000000 ) ;
#245 = COORDINATED_UNIVERSAL_TIME_OFFSET ( 1, 0, .AHEAD. ) ;
#246 = EDGE_LOOP ( 'NONE', ( #309, #106, #208, #213 ) ) ;
#247 = LOCAL_TIME ( 15, 1, 23.00000000000000000, #207 ) ;
#248 = ORIENTED_EDGE ( 'NONE', *, *, #272, .F. ) ;
#249 = ORIENTED_EDGE ( 'NONE', *, *, #144, .T. ) ;
#250 = CARTESIAN_POINT ( 'NONE',  ( -7.500000000000007105, 0.000000000000000000, 90.00000000000000000 ) ) ;
#251 = VERTEX_POINT ( 'NONE', #47 ) ;
#252 = AXIS2_PLACEMENT_3D ( 'NONE', #235, #322, #324 ) ;
#253 = DIRECTION ( 'NONE',  ( -0.000000000000000000, -0.000000000000000000, -1.000000000000000000 ) ) ;
#254 = ADVANCED_FACE ( 'NONE', ( #179 ), #361, .T. ) ;
#255 = PERSON_AND_ORGANIZATION ( #46, #2 ) ;
#256 = CARTESIAN_POINT ( 'NONE',  ( 8.000000000000000000, 9.797174393178825657E-16, 8.000000000000000000 ) ) ;
#257 = CIRCLE ( 'NONE', #304, 8.000000000000000000 ) ;
#258 = ADVANCED_FACE ( 'NONE', ( #34 ), #353, .T. ) ;
#259 = VECTOR ( 'NONE', #253, 1000.000000000000000 ) ;
#260 = AXIS2_PLACEMENT_3D ( 'NONE', #95, #289, #73 ) ;
#261 = CARTESIAN_POINT ( 'NONE',  ( 50.00000000000000000, 6.123233995736766085E-15, 0.000000000000000000 ) ) ;
#262 = DIRECTION ( 'NONE',  ( -1.000000000000000000, 0.000000000000000000, 0.000000000000000000 ) ) ;
#263 = CARTESIAN_POINT ( 'NONE',  ( 0.000000000000000000, 0.000000000000000000, 90.00000000000000000 ) ) ;
#264 = DIRECTION ( 'NONE',  ( 1.000000000000000000, 0.000000000000000000, 0.000000000000000000 ) ) ;
#265 = DIRECTION ( 'NONE',  ( -1.000000000000000000, 0.000000000000000000, 0.000000000000000000 ) ) ;
#266 = CYLINDRICAL_SURFACE ( 'NONE', #188, 8.000000000000000000 ) ;
#267 = DIRECTION ( 'NONE',  ( 1.000000000000000000, 0.000000000000000000, 0.000000000000000000 ) ) ;
#268 = ORIENTED_EDGE ( 'NONE', *, *, #286, .F. ) ;
#269 = CIRCLE ( 'NONE', #13, 7.500000000000007105 ) ;
#270 = CARTESIAN_POINT ( 'NONE',  ( 0.000000000000000000, 0.000000000000000000, 90.00000000000000000 ) ) ;
#271 = APPROVAL_ROLE ( '' ) ;
#272 = EDGE_CURVE ( 'NONE', #27, #251, #273, .T. ) ;
#273 = LINE ( 'NONE', #166, #327 ) ;
#274 = LINE ( 'NONE', #256, #215 ) ;
#275 = EDGE_CURVE ( 'NONE', #31, #285, #336, .T. ) ;
#276 = COORDINATED_UNIVERSAL_TIME_OFFSET ( 1, 0, .AHEAD. ) ;
#277 = AXIS2_PLACEMENT_3D ( 'NONE', #339, #155, #132 ) ;
#278 = PLANE ( 'NONE',  #173 ) ;
#279 = ORIENTED_EDGE ( 'NONE', *, *, #135, .F. ) ;
#280 = CARTESIAN_POINT ( 'NONE',  ( 7.500000000000007105, 9.184850993605157805E-16, 90.00000000000000000 ) ) ;
#281 = DIRECTION ( 'NONE',  ( -0.000000000000000000, -0.000000000000000000, -1.000000000000000000 ) ) ;
#282 = DIRECTION ( 'NONE',  ( -0.000000000000000000, -0.000000000000000000, -1.000000000000000000 ) ) ;
#283 = ORIENTED_EDGE ( 'NONE', *, *, #39, .T. ) ;
#284 = PERSON_AND_ORGANIZATION ( #46, #2 ) ;
#285 = VERTEX_POINT ( 'NONE', #347 ) ;
#286 = EDGE_CURVE ( 'NONE', #80, #117, #160, .T. ) ;
#287 = DIRECTION ( 'NONE',  ( 1.000000000000000000, 0.000000000000000000, -0.000000000000000000 ) ) ;
#288 = APPROVAL ( #354, 'NON SPECIFICATO' ) ;
#289 = DIRECTION ( 'NONE',  ( 0.000000000000000000, 0.000000000000000000, -1.000000000000000000 ) ) ;
#290 = CARTESIAN_POINT ( 'NONE',  ( 0.000000000000000000, 0.000000000000000000, 0.000000000000000000 ) ) ;
#291 = ADVANCED_FACE ( 'NONE', ( #359 ), #100, .T. ) ;
#292 = VECTOR ( 'NONE', #332, 1000.000000000000000 ) ;
#293 = VECTOR ( 'NONE', #199, 1000.000000000000000 ) ;
#294 = CLOSED_SHELL ( 'NONE', ( #52, #291, #123, #370, #254, #75, #343, #79, #21, #258, #156, #194 ) ) ;
#295 = DIRECTION ( 'NONE',  ( 1.000000000000000000, 0.000000000000000000, 0.000000000000000000 ) ) ;
#296 = VECTOR ( 'NONE', #165, 1000.000000000000000 ) ;
#297 = PRODUCT_DEFINITION_FORMATION_WITH_SPECIFIED_SOURCE ( 'TUTTO', '', #196, .NOT_KNOWN. ) ;
#298 = CARTESIAN_POINT ( 'NONE',  ( -8.000000000000000000, 0.000000000000000000, 90.00000000000000000 ) ) ;
#299 = DIRECTION ( 'NONE',  ( -1.000000000000000000, 0.000000000000000000, 0.000000000000000000 ) ) ;
#300 = AXIS2_PLACEMENT_3D ( 'NONE', #159, #120, #369 ) ;
#301 =( NAMED_UNIT ( * ) SI_UNIT ( $, .STERADIAN. ) SOLID_ANGLE_UNIT ( ) );
#302 = CALENDAR_DATE ( 2022, 10, 3 ) ;
#303 = ORIENTED_EDGE ( 'NONE', *, *, #272, .T. ) ;
#304 = AXIS2_PLACEMENT_3D ( 'NONE', #162, #78, #299 ) ;
#305 = CIRCLE ( 'NONE', #185, 8.000000000000000000 ) ;
#306 = ORIENTED_EDGE ( 'NONE', *, *, #45, .F. ) ;
#307 = APPROVAL_ROLE ( '' ) ;
#308 = EDGE_LOOP ( 'NONE', ( #28, #329, #217, #248 ) ) ;
#309 = ORIENTED_EDGE ( 'NONE', *, *, #57, .F. ) ;
#310 = EDGE_LOOP ( 'NONE', ( #53, #17 ) ) ;
#311 = AXIS2_PLACEMENT_3D ( 'NONE', #12, #190, #14 ) ;
#312 = CARTESIAN_POINT ( 'NONE',  ( 0.000000000000000000, 0.000000000000000000, 8.000000000000000000 ) ) ;
#313 = CARTESIAN_POINT ( 'NONE',  ( -50.00000000000000000, 0.000000000000000000, 40.00000000000000000 ) ) ;
#314 =( GEOMETRIC_REPRESENTATION_CONTEXT ( 3 ) GLOBAL_UNCERTAINTY_ASSIGNED_CONTEXT ( ( #242 ) ) GLOBAL_UNIT_ASSIGNED_CONTEXT ( ( #321, #19, #301 ) ) REPRESENTATION_CONTEXT ( 'NONE', 'WORKASPACE' ) );
#315 = ORIENTED_EDGE ( 'NONE', *, *, #180, .T. ) ;
#316 = DATE_AND_TIME ( #302, #325 ) ;
#317 = DIRECTION ( 'NONE',  ( 1.000000000000000000, 0.000000000000000000, 0.000000000000000000 ) ) ;
#318 = CARTESIAN_POINT ( 'NONE',  ( 8.000000000000000000, 9.797174393178825657E-16, 89.50000000000000000 ) ) ;
#319 = EDGE_CURVE ( 'NONE', #87, #31, #269, .T. ) ;
#320 = FACE_OUTER_BOUND ( 'NONE', #151, .T. ) ;
#321 =( LENGTH_UNIT ( ) NAMED_UNIT ( * ) SI_UNIT ( .MILLI., .METRE. ) );
#322 = DIRECTION ( 'NONE',  ( 0.000000000000000000, 0.000000000000000000, 1.000000000000000000 ) ) ;
#323 = DIRECTION ( 'NONE',  ( -0.000000000000000000, -0.000000000000000000, -1.000000000000000000 ) ) ;
#324 = DIRECTION ( 'NONE',  ( 1.000000000000000000, 0.000000000000000000, -0.000000000000000000 ) ) ;
#325 = LOCAL_TIME ( 15, 1, 23.00000000000000000, #245 ) ;
#326 = ORIENTED_EDGE ( 'NONE', *, *, #154, .T. ) ;
#327 = VECTOR ( 'NONE', #51, 1000.000000000000000 ) ;
#328 = VECTOR ( 'NONE', #366, 1000.000000000000000 ) ;
#329 = ORIENTED_EDGE ( 'NONE', *, *, #111, .T. ) ;
#330 = PRODUCT_DEFINITION ( 'NON CONOSCIUTO', '', #297, #7 ) ;
#331 = EDGE_LOOP ( 'NONE', ( #367, #122 ) ) ;
#332 = DIRECTION ( 'NONE',  ( 0.7071067811865426878, 8.659560562354874926E-17, -0.7071067811865524577 ) ) ;
#333 = CARTESIAN_POINT ( 'NONE',  ( 0.000000000000000000, 0.000000000000000000, 90.00000000000000000 ) ) ;
#334 = FACE_OUTER_BOUND ( 'NONE', #238, .T. ) ;
#335 = VERTEX_POINT ( 'NONE', #129 ) ;
#336 = LINE ( 'NONE', #371, #293 ) ;
#337 = CC_DESIGN_APPROVAL ( #115, ( #205 ) ) ;
#338 = CARTESIAN_POINT ( 'NONE',  ( 50.00000000000000000, 6.123233995736766085E-15, 40.00000000000000000 ) ) ;
#339 = CARTESIAN_POINT ( 'NONE',  ( 0.000000000000000000, 0.000000000000000000, 40.00000000000000000 ) ) ;
#340 = AXIS2_PLACEMENT_3D ( 'NONE', #346, #377, #265 ) ;
#341 = SHAPE_DEFINITION_REPRESENTATION ( #91, #50 ) ;
#342 = PLANE ( 'NONE',  #260 ) ;
#343 = ADVANCED_FACE ( 'NONE', ( #93, #83 ), #81, .F. ) ;
#344 = DIRECTION ( 'NONE',  ( -1.000000000000000000, 0.000000000000000000, 0.000000000000000000 ) ) ;
#345 = DIRECTION ( 'NONE',  ( 0.000000000000000000, 0.000000000000000000, 1.000000000000000000 ) ) ;
#346 = CARTESIAN_POINT ( 'NONE',  ( 0.000000000000000000, 0.000000000000000000, 40.00000000000000000 ) ) ;
#347 = CARTESIAN_POINT ( 'NONE',  ( -8.000000000000000000, 0.000000000000000000, 89.50000000000000000 ) ) ;
#348 = CARTESIAN_POINT ( 'NONE',  ( 0.000000000000000000, 0.000000000000000000, 40.00000000000000000 ) ) ;
#349 = MECHANICAL_CONTEXT ( 'NONE', #77, 'mechanical' ) ;
#350 = APPLICATION_CONTEXT ( 'configuration controlled 3d designs of mechanical parts and assemblies' ) ;
#351 = EDGE_CURVE ( 'NONE', #161, #251, #219, .T. ) ;
#352 = PERSON_AND_ORGANIZATION ( #46, #2 ) ;
#353 = CONICAL_SURFACE ( 'NONE', #381, 7.500000000000007105, 0.7853981633974415066 ) ;
#354 = APPROVAL_STATUS ( 'not_yet_approved' ) ;
#355 = ORIENTED_EDGE ( 'NONE', *, *, #144, .F. ) ;
#356 = AXIS2_PLACEMENT_3D ( 'NONE', #189, #184, #224 ) ;
#357 = CIRCLE ( 'NONE', #360, 50.00000000000000000 ) ;
#358 = EDGE_LOOP ( 'NONE', ( #209, #193, #58, #97 ) ) ;
#359 = FACE_OUTER_BOUND ( 'NONE', #187, .T. ) ;
#360 = AXIS2_PLACEMENT_3D ( 'NONE', #223, #37, #9 ) ;
#361 = CYLINDRICAL_SURFACE ( 'NONE', #340, 50.00000000000000000 ) ;
#362 = EDGE_LOOP ( 'NONE', ( #178, #355 ) ) ;
#363 = LINE ( 'NONE', #44, #259 ) ;
#364 = DIRECTION ( 'NONE',  ( -0.000000000000000000, -0.000000000000000000, -1.000000000000000000 ) ) ;
#365 = APPROVAL ( #168, 'NON SPECIFICATO' ) ;
#366 = DIRECTION ( 'NONE',  ( -0.000000000000000000, -0.000000000000000000, -1.000000000000000000 ) ) ;
#367 = ORIENTED_EDGE ( 'NONE', *, *, #39, .F. ) ;
#368 = COORDINATED_UNIVERSAL_TIME_OFFSET ( 1, 0, .AHEAD. ) ;
#369 = DIRECTION ( 'NONE',  ( 1.000000000000000000, 0.000000000000000000, 0.000000000000000000 ) ) ;
#370 = ADVANCED_FACE ( 'NONE', ( #148 ), #62, .T. ) ;
#371 = CARTESIAN_POINT ( 'NONE',  ( -7.500000000000007105, 0.000000000000000000, 90.00000000000000000 ) ) ;
#372 = EDGE_CURVE ( 'NONE', #202, #240, #257, .T. ) ;
#373 = FACE_BOUND ( 'NONE', #84, .T. ) ;
#374 = CARTESIAN_POINT ( 'NONE',  ( -8.000000000000000000, 0.000000000000000000, 0.000000000000000000 ) ) ;
#375 = DIRECTION ( 'NONE',  ( 0.000000000000000000, 0.000000000000000000, 1.000000000000000000 ) ) ;
#376 = CIRCLE ( 'NONE', #300, 8.000000000000000000 ) ;
#377 = DIRECTION ( 'NONE',  ( -0.000000000000000000, -0.000000000000000000, -1.000000000000000000 ) ) ;
#378 = CARTESIAN_POINT ( 'NONE',  ( 8.000000000000000000, 9.797174393178825657E-16, 0.000000000000000000 ) ) ;
#379 = DIRECTION ( 'NONE',  ( 0.000000000000000000, 0.000000000000000000, 1.000000000000000000 ) ) ;
#380 = ORIENTED_EDGE ( 'NONE', *, *, #233, .F. ) ;
#381 = AXIS2_PLACEMENT_3D ( 'NONE', #103, #105, #262 ) ;
#382 = CIRCLE ( 'NONE', #277, 50.00000000000000000 ) ;
#383 = CALENDAR_DATE ( 2022, 10, 3 ) ;
#384 = ORIENTED_EDGE ( 'NONE', *, *, #286, .T. ) ;
#385 = PERSON_AND_ORGANIZATION_ROLE ( 'creator' ) ;
ENDSEC;
END-ISO-10303-21;
